Song name
# A B C D E F G H I J K L M N O P Q R S T U V W X Y Z

The Used - Yesterdays Feelings tab

CHORDS:
   G     A     B     F     D
|--3--|--0--|--2--|--1--|--2--|
|--0--|--2--|--3--|--1--|--3--|
|--0--|--2--|--4--|--2--|--2--|
|--0--|--2--|--4--|--3--|--0--|
|--2--|--0--|--1--|--1--|--X--|
|--3--|--X--|--X--|--1--|--X--|


If you have trouble playing the barred F chord, you can play a 4-string F instead:
   F
|--1--|
|--1--|
|--2--|
|--3--|
|--X--|
|--X--|

INTRO:
e|-------0-----------0-----------0-----------------|
B|-7---7---7-7-7---7---7-7-7---7---7-7-3-----------|
G|---0-----------0---------------------0-----------|
D|-0-----0---0-0-----0---0---10------0-0-----------|
A|-------------------------------------3-----------|
E|-------------------------8-----8-----------------|

VERSE:
Close my eyes and move to the back of my mind
The worries are washed out to sea
See the changes, people's faces blurred out
Like sunspots or raindrops
e|-------0-----------0-----------0-----------0-----|
B|-7---7---7-7-7---7---7-7-7---7---7-7-7---7---7-7-|
G|---0-----------0---------------------------------|
D|-0-----0---0-0-----0---0---10------0---10------0-|
A|-------------------------------------------------|
E|-------------------------8-----8-----8-----8-----|

CHORUS:
G             A               B           A
Now all those feelings, those yesterday's feelings
G             A       B     G
Will all been lost in time
       A        B      A
But today, I've wasted away
      G      A     B
For today is on my mind

VERSE 2:
Left the only worries I had in my hands
Away from the light in my eyes
Holding tight and try not to hide how I feel
'Cause feelings mean nothing
e|-------0-----------0-----------0-----------0-----|
B|-7---7---7-7-7---7---7-7-7---7---7-7-7---7---7-7-|
G|---0-----------0---------------------------------|
D|-0-----0---0-0-----0---0---10------0---10------0-|
A|-------------------------------------------------|
E|-------------------------8-----8-----8-----8-----|


CHORUS:
G             A               B           A
Now all those feelings, those yesterday's feelings
G             A       B     G
Will all been lost in time
       A        B      A
But today, I've wasted away
      G      A     B
For today is on my mind
      G      A     B
For today is on my mind

BRIDGE:
For the bridge, F is repeatedly strummed down, down, up, down. Listen to the song to 
exactly how it's done. Finish on a D.
I can't care to worry
I'm feeling so lonely
Breaking apart all this love in my heart

PRE-CHORUS:
Close my eyes and move to the back of my mind
Where feelings mean nothing
e|-------0-----------0-----------0-----------0-----|
B|-7---7---7-7-7---7---7-7-7---7---7-7-7---7---7-7-|
G|---0-----------0---------------------------------|
D|-0-----0---0-0-----0---0---10------0---10------0-|
A|-------------------------------------------------|
E|-------------------------8-----8-----8-----8-----|

CHORUS:
G             A               B           A
Now all those feelings, those yesterday's feelings
G             A       B     G
Will all been lost in time
       A        B      A
But today, I've wasted away
      G      A     B
For today is on my mind
      G      A     B
For today is on my mind
       G      A
Yeah today is on my mind

Play the end of the song the same as the bridge: strum F, and finish on D. Let the D ring.
I can't care to worry
I'm feeling so lonely
Breaking apart all this love in my heart

Listen to the song to hear the chord patterns and such. If you find any mistakes with 
or chords, or if you have suggestions, please let me know!
Tap to rate this tab
# A B C D E F G H I J K L M N O P Q R S T U V W X Y Z