Song name
# A B C D E F G H I J K L M N O P Q R S T U V W X Y Z

The Used - The Best Of Me tab

-----------------------------------------------------------------------------
			                            The Best of Me - The Used
-----------------------------------------------------------------------------
Tabbed by: Luke Blabey
Email: inkeepingsecretsofsilentearth@live.com

Tuning: Drop-D

Intro

e|---------------------------|
B|---------------------------|
G|---------------------------| x4
D|---------------------------|
A|-10-8-7h8-7-5h7-5-3h5------|
E|----------------------0000-|

e|--------------------------------------------|
B|--------------------------------------------|
G|---------9/10-----------------9/10----------|
D|-0-0-0-0------0-0-0---0-0-0-0-------88-1010-| 
A|-0-0-0-0-7/8--0-0-0---0-0-0-0-7/8---88-1010-|
E|-0-0-0-0------0-0-0---0-0-0-0-------88-1010-|

For the Verse and Chorus I use:

e|--------------------------------------------------|
B|--------------------------------------------------|
G|--------------------------------------------------|
D|-8----10----0----10-------------------------------|
A|-8----10----0----10-------------------------------|
E|-8----10----0----10-------------------------------|

You can figure out the strum pattern.

Pre-Chorus - Palm Muted
e|-------------|
B|-------------|
G|-------------|
D|--8----10----|
A|--8----10----|
E|--8----10----| 

Again, you can figure out the strum pattern.

I think this sounds right. Rate and Comment please.


************************************

| /   slide up
| \   slide down
| h   hammer-on
| p   pull-off
| ~   vibrato
| +   harmonic
| x   Mute note

************************************
Tap to rate this tab
# A B C D E F G H I J K L M N O P Q R S T U V W X Y Z