Song name
# A B C D E F G H I J K L M N O P Q R S T U V W X Y Z

The Vines - Outthaway tab

THE VINES: OUTTHAWAY

VERSE:

  A   G      A   C
E-5-5-3-3-3-/5-5-3-3-3-3-|
B-5-5-3-3-3-/5-5-5-5-5-5-|
G-6-6-4-4-4-/6-6-5-5-5-5-| x2
D-7-7-5-5-5-/7-7-5-5-5-5-|
A-7-7-5-5-5-/7-7-3-3-3-3-|
E-5-5-3-3-3-/5-5-3-3-3-3-|

  G   F      G   A#
E-3-3-1-1-1-/3-3-1-1-1-1-|
B-3-3-1-1-1-/3-3-3-3-3-3-|
G-4-4-2-2-2-/4-4-3-3-3-3-|
D-5-5-3-3-3-/5-5-3-3-3-3-|
A-5-5-3-3-3-/5-5-1-1-1-1-|
E-3-3-1-1-1-/3-3-1-1-1-1-|

  A   G      A   C
E-5-5-3-3-3-/5-5-3-3-3-3-|
B-5-5-3-3-3-/5-5-5-5-5-5-|
G-6-6-4-4-4-/6-6-5-5-5-5-| 
D-7-7-5-5-5-/7-7-5-5-5-5-|
A-7-7-5-5-5-/7-7-3-3-3-3-|
E-5-5-3-3-3-/5-5-3-3-3-3-|


CHORUS:
 
  A5              C5    G5    B5      D5    C5
E-5-5-5-5-5-5-5-5-3-3-3-3-3-3-2-2-2-2-5-5-5-3-3-|
B-5-5-5-5-5-5-5-5-3-3-3-3-3-3-2-2-2-2-5-5-5-3-3-|
G-5-5-5-5-5-5-5-5-5-5-5-3-3-3-4-4-4-4-7-7-7-5-5-| x2
D-7-7-7-7-7-7-7-7-5-5-5-5-5-5-4-4-4-4-7-7-7-5-5-|
A-7-7-7-7-7-7-7-7-3-3-3-5-5-5-2-2-2-2-5-5-5-3-3-|
E-5-5-5-5-5-5-5-5-3-3-3-3-3-3-2-2-2-2-5-5-5-3-3-|

SOLO:

E-------------------------------------------------------------------------------------|
B-------------------------------------------------------------------------------------|
G----7-5-----------------7--5-----------------7-5------------------7-5----------------|
D--------7-5------------------7-5-----------------7-5------------------7-5------------|
A--7---------7-5-------7----------7-5-------5---------7-5-------7----------7-5--------|
E----------------7-5-0----------------7-5-0---------------7-5-0----------------7-5-0--|

E--------------------------------------------------------------------------------------|
B----------------------------------------8---------------------------------------------|
G---7-5-----------5-------7-5-7-5-7-/9-9---9-7-9-8-7-9-8-7-9-8-7-9-8-7-5-5-------------|
D-------7-5-0-5-7---7-5----------------------------------------------------7-5---------|
A-7---------------------7------------------------------------------------------7-5-----|
E-----------------------------------------------------------------------------------7-5|

BRIDGE:

E-----------------------------------------------|
B-----------------------------------------------|
G-----------------------------------------------| x2
D-7-7-7-7-7-7-7-7-5-5-5-5-5-5-4-4-4-4-7-7-7-5-5-|
A-7-7-7-7-7-7-7-7-3-3-3-5-5-5-2-2-2-2-5-5-5-3-3-|
E-5-5-5-5-5-5-5-5-3-3-3-3-3-3-2-2-2-2-5-5-5-3-3-|

END:

  G  G# A
E-3--4--5-|
B-3--4--5-|
G-4--5--6-|
D-5--6--7-|
A-5--6--7-|
E-3--4--5-|

ORDER:

VERSE
CHORUS
VERSE
CHORUS
SOLO
BRIDGE
CHORUS
END



ANY COMMENT: NACHOGRUNGER@HOTMAIL.COM

Tap to rate this tab
# A B C D E F G H I J K L M N O P Q R S T U V W X Y Z