Guitaretab - guitar tabs
Song name
# A B C D E F G H I J K L M N O P Q R S T U V W X Y Z

The Wedding - Ill Sleep When Im Dead tab

The Wedding- I'll Sleep When I'm Dead
Tabbed by: jamuel24
Email: jam_tecus12@hotmail.com

Tuning: Drop Db

Intro: Guitar 1    (the (8) comes in as you are holding the 10)
eb|--3h5-7-5-3-0--0h3-2-3-5-3-3h5-7-5-3--8-7-5-3-10~--------------------------|
Bb|-------------------------------------------------(8)-----------------------|
Gb|---------------------------------------------------------------------------|
Db|---------------------------------------------------------------------------|
Ab|---------------------------------------------------------------------------|
Db|---------------------------------------------------------------------------|

Intro: Guitar 2 (2x) (hold the 577 chord the second time through at the end)
eb|---------------------------------------------------------------------------|
Bb|---------------------------------------------------------------------------|
Gb|---------------------5-5-5-5-5-7-7-7-7-------------------------------------|
Db|-2-2-2-2-22-2-2-2-2--5-5-5-5-5-7-7-7-7-------------------------------------|
Ab|-2-2-2-2-22-2-2-2-2--3-3-3-3-3-5-5-5-5-------------------------------------|
Db|-2-2-2-2-22-2-2-2-2--------------------------------------------------------|

Verse: Guitar 2 (2x) (end of second time slide up to 688 and hold)
eb|---------------------------------------------------------------------------|
Bb|---------------------------------------------------------------------------|
Gb|--------------------4-5---4-5-7--------------------------------------------|
Db|--5-0-2---5-0-2---2-4-5---4-5-7--------------------------------------------|
Ab|--5-0-2---5-0-2---2-2-3---2-3-5--------------------------------------------|
Db|--5-0-2---5-0-2---2--------------------------------------------------------|

Verse: Guitar 1 (come in on second time of guitar 2ís part)
eb|---------------------------------------------------------------------------|
Bb|---------------------------------------------------------------------------|
Gb|--9------11------12-----14------15-----------------------------------------|
Db|--x-(8x)-x-(8x)--x-(8x)-x--(4x)-x--(4x)------------------------------------|
Ab|--7------9-------10-----12------13-----------------------------------------|
Db|---------------------------------------------------------------------------|

Chorus: Guitar 2 plays intro twice, with a pick slide after 1st time

Chorus: Guitar 1 (2x) (come in second time of guitar 2, after slide)
eb|---------------------------------------------------------------------------|
Bb|---------------------------------------------------------------------------|
Gb|--12-----16-----14---------------------------------------------------------|
Db|--x-(8x)-x-(4x)-x-(4x)-----------------------------------------------------|
Ab|--10-----14-----12---------------------------------------------------------|
Db|---------------------------------------------------------------------------|
[ Tab from: http://www.guitaretab.com/t/the-wedding/171089.html ]
Repeat Verse part for both guitars (some harmonics on the pre-chorus this time)

Pre-Bridge: Guitar 2
eb|---------------------------------------------------------------------------|
Bb|---------------------------------------------------------------------------|
Gb|--14--12--11--7------------------------------------------------------------|
Db|--x---x---x---x------------------------------------------------------------|
Ab|--12--10--9---5------------------------------------------------------------|
Db|---------------------------------------------------------------------------|

Bridge: Guitar 2 (Do this sequence, then the first riff and second riff again)
eb|-------(3x)---------------------|----(4th-time)---------|-very-last-time---|
Bb|--------------------------------|-----------------------|------------------|
Gb|--99-899-899-8-9h11p9-8---------|-99-899-89989-11-12-14-|-99-899-89~-------|
Db|--------------------------------|-----------------------|------------------|
Ab|--------------------------------|------------------------------------------|
Db|--------------------------------|------------------------------------------|

Bridge: Guitar 1 (harmony of the Guitar 2 part) 
eb|-----(2x)------------------|--------------(3rd-time)-----------------------|
Bb|--88-788-788-7-8h10p8-7----|--88-788-78878-10-12-13-12---------------------|
Gb|---------------------------|-----------------------------------------------|
Db|---------------------------|-----------------------------------------------|
Ab|---------------------------|-----------------------------------------------|
Db|---------------------------|-----------------------------------------------|

Bridge Part Two: Guitar 1 (2x)
eb|---------------------------------------------------------------------------|
Bb|---------------------------------------------------------------------------|
Gb|---------------------------------455-455-455-455-477-677-688-888-----------|
Db|--22-122-122-122-122-122-122-122-455-455-455-455-477-677-688-888-----------|
Ab|--22-122-122-122-122-122-122-122-233-233-233-233-255-455-466-666-----------|
Db|--22-122-122-122-122-122-122-122-------------------------------------------|

Bridge Part Two: Guitar 2, second time (just hold each note, bend, whatever) 
eb|---------------------------------------------------------------------------|
Bb|---------------17~---------------------------------------------------------|
Gb|--9--11--12-14-------------------------------------------------------------|
Db|---------------------------------------------------------------------------|
Ab|---------------------------------------------------------------------------|
Db|---------------------------------------------------------------------------|

Repeat Chorus, start with this chord    
     Gb-0Db-2Ab-2 I think that's it, hope it makes sense
End on verse part (5-0-2)

Thatís it! I love this song, and I hope the tab
sounds good to you guys! Feel free to hit me with any comments or suggestions.


Related for Ill Sleep When Im Dead tab