Song name
# A B C D E F G H I J K L M N O P Q R S T U V W X Y Z

The White Buffalo - Into The Sun tab

Tune the top E string to an F# (Gb)

Intro (repeat 2x)

|e--------------------------------------------------------------------------|
|B---------1-------1--------1-------1--------1-------1-------1-------1------|
|G----0h2----2---2---2----0---0---0---0--0h2---2---2---2---2---2---2---2----|
|D--------------------------------------------------------------------------|
|A----0--------0-------------------------0-------0-------0-------0----------|
|F#---------------------1-------1-------------------------------------------|


Verses


  City streets & desert heat burn my mind and force my feet to keep
|---------------------------------------------------------------------|
|---1-----------1--1------------1--1-----------1--1-----------1-------|
|------2-----2--------2-----2---------2-----2--------2-----2----------|
|---------2--------------2---------------2--------------2-------------|
|---0--------------0---------------0--------------0-------------------|
|---------------------------------------------------------------------|

  Moving
|-------------------0-----------------------------0-------------------|
|---1-----------1---------------1--1-----------1--------------1-------|
|------0-----0---------0-----0--------0-----0--------0-----0----------|
|---------2---------------2--------------2--------------2-------------|
|---3---------------3--------------3--------------3-------------------|
|---------------------------------------------------------------------|


Chorus

  I better run                                            into 
|---------------------------------------------------------------------------|
|--1-------1--0-------0--1-------1--1-------1--1-------1--1-------1---------|
|----0---0------1---1------2---2------2---2------2---2------2---2-----------|
|------2----------2----------2----------2----------2----------2-------------|
|--3----------2----------0----------0----------0----------0-----------------|
|---------------------------------------------------------------------------|



   The sun             until I hit the ocean
|---------------------------------------------------------------------------|
|--1-------1-1-------1-1-------1-1-------1-0h1-----1-1-------1-1-------1----|
|----0---0-----0---0-----0---0-----0---0-------2-------2---2-----2---2------|
|------2---------2---------2---------2-----------2-------2---------2--------|
|--3---------3---------3---------3---------0---------0---------0------------|
|---------------------------------------------------------------------------|
Tap to rate this tab
# A B C D E F G H I J K L M N O P Q R S T U V W X Y Z