Song name
# A B C D E F G H I J K L M N O P Q R S T U V W X Y Z

The Xx - Teardrops tab

Pretty simple really.


|--------------------------|
|--------12-12-14-14-12-12-|
|--13-13-------------------| x2
|--------------------------|
|--------------------------|
|--------------------------|

|--------------------------------------------------|
|--------12-12-16-16-12-12-14-14-12-12-16-16-12-12-|
|--13-13-------------------------------------------|
|--------------------------------------------------|
|--------------------------------------------------|
|--------------------------------------------------|

amazing song. amazing band.
Tap to rate this tab
# A B C D E F G H I J K L M N O P Q R S T U V W X Y Z