Song name
# A B C D E F G H I J K L M N O P Q R S T U V W X Y Z

The Xx - Islands tab

-----------------------------------------------------------------------------
			     Islands - The Xx
-----------------------------------------------------------------------------
Tabbed by: X-ChrisCross-X
Email: wildwolf86@googlemail.com

Tuning: Standard

Hey ho. I "should" have studied, really...should have ^^"
But this songīs a real earworm :P
So I had to give it a try.
Sounds pretty good to me.
Right...


e|--------------------------------------------------|
B|---4----------------------------------------------|
G|-1------6---------4---4-------------------4-------|
D|------4-----(2)2----2------6------4--2------------|
A|--------------------- (4)4---4/6------------------|
E|--------------------------------------------------|

e|--------2-----------------------------------------|
B|---4--0-------------------------------------------|
G|-1----------------4---4-------------------4-------|.
D|------------(2)2----2-------6------6/2------------|.
A|------------------------4-4---4-4-----------------|
E|--------------------------------------------------|

listen to the song for timing and lenght of that part.


e|--------------------------------------------------|
B|-----------4-4...---------------------------------|  at first let it linger
G|-1-1...----4-4...---4-4...---1-1...4--------------|  only shortly, after a
D|-2-2... ------------6-6...---2-2...2--------------|  while play fluently
A|--------------------------------------------------|   :)
E|--------------------------------------------------|

Bridge:
...
D|-6-6/9-9/11---6-6\4-4\2---------------------------|
...

Outro:
e|----------------------------------------------------------------------|
B|----------------------------------------------------------------------|
G|----------8--8------------------4--4.....-----4-4-4...8-8-8...4-4....4|
D|----6--6----6--6--(2x)----6--6----6--6...(2x)--6-6-6...9-9-9....6-6..6|
A|--4--4------------------4--4------------------------------------------|
E|----------------------------------------------------------------------|

Have fun!
************************************

| /   slide up
| \   slide down
| h   hammer-on
| p   pull-off
| ~   vibrato
| +   harmonic
| x   Mute note
| b   Bend
| pb  Pre-bend
| br  Bend release
| pbr Pre-bend release
| brb Bend release bend

************************************
P.S. Iīve posted this tab before, though it wasnīt published. But I didnīt use the 
from here nor was I a member, so sorry if this tab comes up
twice some time...^^"
Tap to rate this tab
 
# A B C D E F G H I J K L M N O P Q R S T U V W X Y Z