Song name
# A B C D E F G H I J K L M N O P Q R S T U V W X Y Z

The Xx - Unfold tab

The xx - Unfold
From the album "Coexist" (2012).

Tabbed by Isaac Murguia, December 2012.
YouTube: Goadiroth

INTRO:
     [x5]      [x5]       [x5]
e|----------|---------|----------|-------|
B|----------|---------|----------|-------|
G|----------|---------|----------|-------|
D|-12-11----|-12-11---|-12-11----|-11----|
A|-------12-|-------9-|----------|-------|
E|----------|---------|-------12-|-------|

VERSE:
e|----------------------|
B|----------------------|
G|----------------------|
D|------------9---------|
A|-9---------------9----| [x2]
E|------10--------------|

PRE-CHORUS:
      [x4]                        [x3]          [x4]          [x2]
e|-------------|-------------|-------------|-------------|-------------|-------|
B|-------------|-------------|-------------|-------------|-------------|-------|
G|-------------|-------------|-------------|-------------|-------------|-------|
D|-11-11-11-11-|-11-11-11-11-|-11-11-11-11-|-------------|-12-12-12-12-|-11----|
A|-------------|-9-----------|-------------|-11-11-11-11-|-------------|-------|
E|-------------|-------------|-------------|-------------|-------------|-------|

CHORUS:
e|------------------------|
B|------------------------|
G|------------------------|
D|-11----------11---------|
A|-------11----9-----9----|
E|------------------------|

Repeat:

INTRO
VERSE
PRE-CHORUS
CHORUS
INTRO

Enjoy. :)
Tap to rate this tab
# A B C D E F G H I J K L M N O P Q R S T U V W X Y Z