The Xx - Intro tab

Behold my first tab! I chose "Intro" because it sounded like a relatively easy 
song to test my transcribing skills.

Here's how the tab goes: eBG strings cover the guitar part and DAE cover the bass violin part.

C&C are very welcome.

Artist: The XX
Song: Intro

[00:00-00:24] Intro:
e|--------------------------------------------------------------------------|
B|-----------------------------------------33-333-333-333-355-555-533-3-----|
G|-22-222-222-222-222-222-255-555-555-555-5----------------------------55-0-|
D|--------------------------------------------------------------------------|
A|------------------------(0)---------------------------(3-0)---------------|
E|--------(1)-----------------------------(1)-------------------------------|


[00:24-00:42] 
e|-------------------------------------------------------------------|
B|----------------------------------33-333-333-333-355-555-533-3-----|
G|--22-222-222-222-255-555-555-555-5----------------------------55-0-|
D|----------------------------------------------(2-0)----------------|
A|---------------(3-0)------------(3)--------------(0)---------------|
E|-(1)------------------------------(1)------------------------------|


[00:42-00:52] 
e|---------------------------------------|
B|-------33------33--------55--33--55----|
G|--22/55--55\255--55\22/55--55--55--55\-|
D|---------------------------------------|
A|-----------------(3-0)--------------(3)|
E|-(1)-----------------------------------|


[00:52-01:02]
e|-----------------------------------|
B|-----33-------33-------55--33--55--|
G|-\255--55\2/55--55\2255--55--55--5-|
D|---------------(2-0)---------------|
A|------------------(0)--------------|
E|-(1)-------------------------------|


[01:02-01:21]
e|------------------------------------------------------------------|
B|---------------------------------33-333-333-333-355-555-533-3-----|
G|-22-222-222-222-255-555-555-555-5----------------------------55-0-|
D|---------------------------------------------(2-0)----------------|
A|----------------(0)-----------(3)---------------(0)---------------|
E|-(1)----------------------------(1)-------------------------------|


parts [00:42-00:52] & [00:52-01:02] are repeated with vocals


[01:40-02:07] Outro:
e|----------------------------------------3-----------|
B|----------------3---5------------------------3/5----|
G|--2-----2/5------------5------5/7-----------------5-|
D|----------------------------(2-0)-------------------|
A|-------(3-0)---------(3)-------(0)-------------(3)--|
E|-(1)------------------(1)------------------------(1)|
Tap to rate this tab
 
# A B C D E F G H I J K L M N O P Q R S T U V W X Y Z