Song name
# A B C D E F G H I J K L M N O P Q R S T U V W X Y Z

The Xx - Fiction tab

The xx - Fiction
From the sophomore album "Coexist" (Young Turks 2012)

Tabbed by Isaac Murguia, November 11, 2013.
Originally uploaded to Ultimate-Guitar.com
YouTube: Goadiroth

INTRO:
       [x3]           [x2]
e|--------------|--------------|--------------|--------------|
B|--------------|--------------|--------------|--------------|
G|-12---15---8--|-12--------8--|-12--------8--|-12---15---8--|
D|-12---15---8--|-12---15---8--|-12---15---8--|-12---15---8--|
A|-10---13---6--|-10---13---6--|-10-/-13---6--|-10---13---6--|
E|--------------|--------------|--------------|--------------|

LICK 1:
e|-------------------------------|-------------------|      |------|
B|-------11-------11----11-11-11-|----11-------10----|      |------|
G|-12-12----12-12----12----------|-10----10-10----10-|      |-12---|
D|-------------------------------|-------------------|      |------|
A|-------------------------------|-------------------|      |------|
E|-------------------------------|-------------------| [x2] |------|

LICK 2:
e|-----------------------|-------------|
B|-----------------------|-------------|
G|-----------------------|-------------|
D|----8-------8----8-8-8-|---8-----7---|
A|-10---10-10---10-------|-8---8-8---8-|
E|-----------------------|-------------|

e|--------------------------|-------------|
B|--------------------------|-------------|
G|--------------------------|-------------|
D|-------8-------8----8-8-8-|---8-----7---|
A|-10-10---10-10---10-------|-8---8-8---8-|
E|--------------------------|-------------| [x3]

LICK 3: "and if I just might..."
                                  1.2.                3.
e|-------------------------------|-------------------|-------------------|
B|-------------------------------|-------------------|-------------------|
G|-------------------------------|-------------------|-------------------|
D|-------12-------12----12-12-12-|----12-------------|----12-------------|
A|-13-13----13-13----13----------|-12----12h13-15-12-|-12----12-12-15-12-|
E|-------------------------------|-------------------|-------------------|

e|-------------------------------|---------------|
B|-------------------------------|---------------|
G|-------------------------------|---------------|
D|-------12-------12----12-12-12-|----12---------| "fiction...
A|-13-13----13-13----13----------|-12----12-15---|  ...when we're not
E|-------------------------------|---------------|  together..."

OUTRO:
e|--------------------------------|---------------------------|
B|--------------------------------|---------------------------|
G|--------------------------------|---------------------------|
D|----12--12-13-15--------10-/-12-|----12--12-13-10--10-10-12-|
A|-13---------------13-13---------|-13------------------------|
E|--------------------------------|---------------------------| [x2]

End. Please rate! :)
Tap to rate this tab
 
# A B C D E F G H I J K L M N O P Q R S T U V W X Y Z