The Zen Circus - Figlio Di Puttana tab

|----------------------|-----------------------------|
|---------1---------0--|---1-------1-----------------|
|------x-----0---------|--(0)-------------0-------0--|
|------x--------(2)----|--(2)---x----(x)-----(2)-----|
|--3-------------3-----|--(3)---x----(x)-----(3)-----|
|----------------------|-----------------------------|

|------------------0---|-------------------|
|--------1--------(0)--|-------------------|
|--2-------------------|--------2-----2p0--| X2
|-----x-----3--x-------|--2--x---0h2--0----|
|-----x--------x-------|-----x-------------|
|----------------------|-------------------|
i'm pretty sure that's right,it's all by ears :)
canaja94-mls96
Tap to rate this tab
 
# A B C D E F G H I J K L M N O P Q R S T U V W X Y Z