Song name
# A B C D E F G H I J K L M N O P Q R S T U V W X Y Z

Theory 47 - Letter tab

                letter by theory 47

intro
e-------------------------------------------------------------|
b-------------------------------------------------------------|
g--14b(12x)12---------------------------1214----1214----1214--|
d------------14-1214-1214-1214-1214-1214----1214----1214------|
a-------------------------------------------------------------|
E-------------------------------------------------------------|

e-------------------------------------------------------|
b-------------------------------------------------------|
g--14-12-12-14-12-12-14b-----12----12----12----12-14b---|
d--------------------12b-1214--1214--1214--1214---12b---|
a-------------------------------------------------------|
E-------------------------------------------------------|

e--------------15-12---12-15---------------------------|
b-------------------15---------------------------------|
g--14-14-14-14-----------------------------------------|
d------------------------------------------------------|
a------------------------------------------------------|
E------------------------------------------------------|

e------------------------------------------------------|
b------------------------------------------------------|
g-------------7-7--9-99--------------7-7--9-99---------|
d--7-7--5-55--7-7--9-99---7-7--5-55--7-7--9-99---------|
a--7-7--5-55--5-5--7-77---7-7--5-55--5-5--7-77---------|
E--5-5--3-33--------------5-5--3-33--------------------|

verse
e------------------------------------------------------|
b------------------------------------------------------|
g------------------------------------------------------|
d------0-------0-------0-------2-----------------------|
a----4---4---0---0---0---0---2---2---------------------|
E--5-------3-------2-------0---------------------------|

chorus
e------------------------------------------------------|
b------------------------------------------------------|
g-------------7-7--9-99--------------7-7--9-99---------|
d--7-7--5-55--7-7--9-99---7-7--5-55--7-7--9-99---------|
a--7-7--5-55--5-5--7-77---7-7--5-55--5-5--7-77---------|
E--5-5--3-33--------------5-5--3-33--------------------|

    listen to them at myspace.com/theory47

bridge
e------------------------------------------------------|
b------------------------------------------------------|
g------------------------------------------------------|
d--7777-5555-4444-2222-7777-5555-3333-2----------------|
a--7777-5555-4444-2222-7777-5555-3333-2----------------|
E--5555-3333-2222-0000-5555-3333-2222-0----------------|
Tap to rate this tab
# A B C D E F G H I J K L M N O P Q R S T U V W X Y Z