Song name
# A B C D E F G H I J K L M N O P Q R S T U V W X Y Z

Therapy - Disgracelands tab

Disgracelands
                                    by

                                 THERAPY?

Transcribed by Jonathan Garvin (jgarvin@its.dundee.ac.uk);


Intro

-10------------9--------------7--|a     |_ X4
---------------------------------|e     |


Riff A
  
  E5 D5 C5 D5    ** Just Chord Progressions, actually played about 10 
                    times each **
Riff B

--9-----------11----------12--|g      
--9-----------11----------12--|d
--7------------9----------10--|a
------------------------------|e

Bridge

-7-5-7--5-3-5--3-0-3---------|a     
----------------------3-0-3--|e


Fill

-5---3---2---0---5-3-2-0-5-3-2-0-|d   


------------------------------------------
Intro                                    
Riff A   X4                              
Riff B   X4  Verse                       
Riff A   X4                              
Riff B   X4                              
Riff A   X4                              
Bridge   X4                              
Riff A   Until End     -  with fill X4   
                                         
                                         
-----------------------------------------------------------------------------
Tap to rate this tab
# A B C D E F G H I J K L M N O P Q R S T U V W X Y Z