Song name
# A B C D E F G H I J K L M N O P Q R S T U V W X Y Z

Therapy - Hypermania tab

Hypermania
                                    by
                                  THERAPY?

Transcribed by Jonathan Garvin(jgarvin@its.dundee.ac.uk);

Riff A

                 H
---H----3-------3-5-5-6--------|A
--3-5-5---5-5-5---------5-5-5--|E



Riff B

--2-2-2-2-2-2-2-2--|e
--3-3-3-3-3-3-3-3--|B
--2-2-2-2-2-2-2-2--|G


Bridge

       Trem          Trem 
--5-5-3-----------------|G
--5-5-3---------3-3-5---|D
--3-3-1---------3-3-5---|A
----------------1-1-3---|E



  Drum Intro.
Riff A   X4
Riff B   X8
Riff A   X4
Riff B   X8
Riff A   X4
Bridge   X12
Riff A   X8      (  followed by   --3\5--|E  )

   Drum Fill.

Last Chord

-----|
--6--|
--5--|
--3--|
-----|
-----|
Tap to rate this tab
 
# A B C D E F G H I J K L M N O P Q R S T U V W X Y Z