Song name
# A B C D E F G H I J K L M N O P Q R S T U V W X Y Z

Third Eye Blind - Freshmen tab

Hey i really enjoy this song but i really didnt find any good tabs to this version so i 
to try this out myself and this is my first tab but im pretty sure its 100% right
Tabbed by: Vincent Brauer
Tuning:standard

Intro:
Riff 1
e|-------0----2---0--------0----5-------------0---------------------------|
B|-----0---0----0--------0---0------------------------------------------2-|
G|---------------------------------------6------6-------4---------2-------|
D|--2----------------------------------6---6--------------------2----2----|(x4)
A|-------------------0---------------4---------------2-------0------------|
E|------------------------------------------------------------------------|

Riff 2
|--------------------------------|
|------------------------------2-|
|------6---------4---------2-----|
|----6---6-----4---4-----2---2---|(x4)
|--4---------2---------0---------|
|--------------------------------|

-the first chorus is just riff 1 with some bass.

-And if you havent noticed already that there is 2 guitars playin in this song so pay 
to what i say at the "-"

-Verse 2 is Riff 1 again and at the begining you'll notice another guitar playin riff 3 
some distortion:
|-----0---2~----------0-------------------------|
|---0-------------------0~----------------------|
|------------------6----------------------------|
|-2---------------------------------------------|
|----------------4------------------------------|
|-----------------------------------------------|

-Bridge 2 has riff 2 in the backround and riff 4 playin:
|------------------------------------------------|
|------------------------------------------------|
|--9-8-9---9-8-9---9-8-9/11-9-8-9----------------|(x4)
|------------------------------------------------|
|------------------------------------------------|
|------------------------------------------------|

Chorus 2 has riff 1 and guitar 2 playin chords:
|--------------------------------------------|
|--------------------------------------------|
|--9-99-9----------6-66--4--2-22-2-----------|
|--9-99-9--7-77-7--6-66--4--2-22-2-----------|(x2)
|--7-77-7--7-77-7--4-44--2--0-00-0-----------|
|----------5-55-5----------------------------|

-Right after the 2nd chorus just play the bridge again
-Then comes verse 3 which you basically just play riff 1 with distortion
-here comes the bridge again- play riff 4
-well i think you get the idea now hopefully, for the chorus play riff 1 and the chords

- the outro starts with the first riff 2 and goes into riff 3, you do riff three a 
times with riff one playin softly in the backround.

Thats it! have fun playin it!
Tap to rate this tab
# A B C D E F G H I J K L M N O P Q R S T U V W X Y Z