Song name
# A B C D E F G H I J K L M N O P Q R S T U V W X Y Z

This Providence - Waste Myself tab

Guitar 1
eb|-----------------------------------------------------|
Bb|-----------------------------------------------------|
Gb|--------4-----------------------------4--------------|
Db|-2------4-(x8)-4------6--------2------4-(x8)-4-------|
Ab|-2-(x8)-2------4-(x8)-6-(x8)---2-(x8)-2------4-(x16)-|
Eb|-0-------------2------4--------0-------------2-------|

Guitar 2
eb|------------------------------------------------------------|
Bb|------------------------------------------------------------|
Gb|---8---8h9p8------------8--8h9p8--------8---8h9p8-----------|
Db|-9---9-------9-11--9-11----------11---9---9-------9-11-9----|
Ab|---------------------------------------------------------9~-|
Eb|------------------------------------------------------------|

Verse 0.25 x4
eb|------------------------|
Bb|------------------------|
Gb|-8-8-8h11p8-------------|
Db|-------------9-9-9h11-9-|
Ab|------------------------|
Eb|------------------------|

Chorus x2
Guitar 1
eb|-----------------------------------------------------|
Bb|-----------------------------------------------------|
Gb|--------4-----------------------------4--------------|
Db|-2------4-(x8)-4------6--------2------4-(x8)-4-------|
Ab|-2-(x8)-2------4-(x8)-6-(x8)---2-(x8)-2------4-(x16)-|
Eb|-0-------------2------4--------0-------------2-------|

Guitar 2
eb|------------------------------------------------------------|
Bb|------------------------------------------------------------|
Gb|---8---8h9p8------------8--8h9p8--------8---8h9p8-----------|
Db|-9---9-------9-11--9-11----------11---9---9-------9-11-9----|
Ab|---------------------------------------------------------9~-|
Eb|------------------------------------------------------------|

Pre Verse
Guitar 1
eb|------------------------|
Bb|------------------------|
Gb|------------------------|
Db|-9999-99h11p9-9999-9999-|
Ab|------------------------|
Eb|------------------------|

Guitar 2
eb|------------------------|
Bb|------------------------|
Gb|-8-8-8h11p8-------------|
Db|-------------9-9-9h11-9-|
Ab|------------------------|
Eb|------------------------|

Verse 2
Guitar 1
eb|-------------------------------------------------------|
Bb|-------------------------------------------------------|
Gb|---------444-------------------------444---------------|
Db|-22-22---444---44-44---666---22-22---444---44-44---444-|
Ab|-22-22---222---44-44---666---22-22---222---44-44---444-|
Eb|-00-00---------22-22---444---00-00---------22-22---222-|

eb|------------------------|
Bb|------------------------|
Gb|-8-8-8h11p8-------------|
Db|-------------9-9-9h11-9-|
Ab|------------------------|
Eb|------------------------|


Repeat Chorus

Bridge
Guitar 1 x2
eb|----------------------|
Bb|----------------------|
Gb|--------4------6------|
Db|-6------4-(x8)-6-(x16)|
Ab|-6-(x8)-2------4------|
Eb|-4--------------------|

Guitar 2 (really hard to hear and I think there are 2 guitars playing this part)
eb|--------------------------------------------------|
Bb|-11h12p11----11h12p11-----------------------------|
Gb|----------13----------13--------------------------|
Db|--------------------------13(x8)-11(x8)--11-9-8-9-|
Ab|--------------------------------------------------|
Eb|--------------------------------------------------|

eb|------------------------------------------------------|
Bb|--------------11h12p11----11h12p11---------11h12p11---|
Gb|----------------------13----------13---------------13-|
Db|--------9(x8)--------------------------8/9------------|
Ab|-11(x8)-----------------------------------------------|
Eb|------------------------------------------------------|

Repeat Chorus

Outro
eb|------------------------|
Bb|------------------------|
Gb|-8-8-8h11p8-------------|
Db|-------------9-9-9h11-9-|
Ab|------------------------|
Eb|------------------------|
Tap to rate this tab
 
# A B C D E F G H I J K L M N O P Q R S T U V W X Y Z