This Time Next Year - New Sensation tab

-------------------------------------------------------------------------------
		  New Sensation - This Time Next Year
-------------------------------------------------------------------------------
Tabbed by: Andrew Lassise
Tuning: Down 1/2 Step

Intro / Chorus Guitar 1
eb|---------------------------------------------------------------------------|
Bb|---------------------------------------------------------------------------|
Gb|-----------------2-2--4-4-4-4-4-4------------------2-2-2-2-2-2-2-2-2-2-2---|
Db|-2-2-5-5-5-5-5-5-2-2--4-4-4-4-4-4--2-2-5-5-5-5-5-5-2-2-2-2-2-2-2-2-2-2-2---|
Ab|-2-2-5-5-5-5-5-5-0-0--2-2-2-2-2-2--2-2-5-5-5-5-5-5-0-0-0-0-0-0-0-0-0-0-0---|
Eb|-0-0-3-3-3-3-3-3-------------------0-0-3-3-3-3-3-3-------------------------|

Guitar 2
eb|--5--2-------------------5--2--------------5--2---------------------------------------|
Bb|-------3--3-5/8-7-5-3-5--------3--8-7-5-3-------3--3-5/8-7-5-3-5----------------------|
Gb|-----------------------------------------------------------------12-11-9-7-9-11-9-7---|
Db|-----------------------------------------------------------------x--x--x-x-x-x--x-x---|
Ab|-----------------------------------------------------------------10-9--7-5-7-9--7-5---|
Eb|--------------------------------------------------------------------------------------|

eb|---------------------------------------------------------------------------|
Bb|---------------------------------------------------------------------------|
Gb|-----------------2-2--4-4-4-4-4-4-5-5-5-5-5-5-5-5--------------------------|
Db|-2-2-5-5-5-5-5-5-2-2--4-4-4-4-4-4-5-5-5-5-5-5-5-5-5-5-5-5-5-5-5-5----------|
Ab|-2-2-5-5-5-5-5-5-0-0--2-2-2-2-2-2-3-3-3-3-3-3-3-3-5-5-5-5-5-5-5-5----------|
Eb|-0-0-3-3-3-3-3-3----------------------------------3-3-3-3-3-3-3-3----------|

Verse
eb|----------------------------------------------------------------------------------------|
Bb|----------------------------------------------------------------------------------------|
Gb|--7-7------2-2-4----7-7------2-2-4----7-7------2-2-4----7-7------2-2-4--5-5-5-5---------|
Db|--7-7-5----2-2-4----7-7-5----2-2-4----7-7-5----2-2-4----7-7-5----2-2-4--5-5-5-5-5-5-5-5-|
Ab|--5-5-5----0-0-2----5-5-5----0-0-2----5-5-5----0-0-2----5-5-5----0-0-2--3-3-3-3-5-5-5-5-|
Eb|------3-----------------3-----------------3-----------------3-------------------3-3-3-3-|

Prechorus [1:12]
eb|----------------------------------------------------------------------------------------|
Bb|----------------------------------------------------------------------------------------|
Gb|------2-0---------2-0----7-7-2-0------------------------------7-7-7-7-7-7-7-7-7-7-7-7---|
Db|--2-2-----4---5-5-----4--7-7-----4-7--2-2-2-2-5-5-5-5-7-7-7-7-7-7-7-7-7-7-7-7-7-7-7-7-7-|
Ab|--2-2---------5-5--------5-5-------7--2-2-2-2-2-2-2-2-5-5-5-5-5-5-5-5-5-5-5-5-5-5-5-5-7-|
Eb|--0-0---------3-3------------------5--0-0-0-0-0-0-0-0-3-3-3-3-3-3-3-3-----------------5-|
				      PM * * * * * * * * * * * * * * * * * * * * * * * *
Bridge [1:42] (Second time through end on 577)
eb|---------------------------------------------------------------------------|
Bb|---------------------------------------------------------------------------|
Gb|--7-7-7-7-7-7-7-7-5-5-5-5-5-5-5-5------------------------------------------|
Db|--7-7-7-7-7-7-7-7-5-5-5-5-5-5-5-5-5-5-5-5-5-5-5-5-5-7-7-7-7-7-7-7-7--------|
Ab|--5-5-5-5-5-5-5-5-3-3-3-3-3-3-3-3-5-5-5-5-5-5-5-5-5-7-7-7-7-7-7-7-7--------|
Eb|----------------------------------3-3-3-3-3-3-3-3-3-5-5-5-5-5-5-5-5--------|
Guitar 2 
eb|--5-----3-2---3-2-------------3-2----3-2----------3-2---3-2---------------------|
Bb|------------3-----3---------------3------3------------3-----3-3-/-5----2-3-2-3--|
Gb|--------------------------------------------------------------------------------|
Db|--------------------------------------------------------------------------------|
Ab|--------------------------------------------------------------------------------|
Eb|--------------------------------------------------------------------------------|
Tap to rate this tab
 
# A B C D E F G H I J K L M N O P Q R S T U V W X Y Z