Song name
# A B C D E F G H I J K L M N O P Q R S T U V W X Y Z

This Time Next Year - Last Call tab

This Time Next Year
Last Call
Drop Out Of Life

C#G#C#F#A#D#

Intro
|-----------------------------------------------------------|
|-----------------------------------------------------------|
|--6-7-9-6-4----6-7-9-6-2-4----6-7-9-6-4----7-6-4-2-4-2-----|
|-----------------------------------------------------------|
|-----------------------------------------------------------|
|-----------------------------------------------------------|

Verse*
|-----------------------------------------------------------|
|-----------------------------------------------------------|
|-----------------------------------------------------------|
|--7-7-7-7--2-2-2-2--4-4-4-4--5-5-5-5-----------------------|
|--7-7-7-7--2-2-2-2--4-4-4-4--5-5-5-5-----------------------|
|--7-7-7-7--2-2-2-2--4-4-4-4--5-5-5-5-----------------------|

Chorus*
|-----------------------------------------------------------|
|-----------------------------------------------------------|
|-----------7-7-7-7--4-4-4-4--------------------------------|
|--7-7-7-7--7-7-7-7--4-4-4-4--5-5-5-5-----------------------|
|--7-7-7-7--5-5-5-5--2-2-2-2--5-5-5-5-----------------------|
|--7-7-7-7--------------------5-5-5-5-----------------------|

Bridge*
|-----------------------------------------------------------|
|-----------------------------------------------------------|
|-----------------------------4-4-4-4-----------------------|
|--4-4-4-4--2-2-2-2--7-7-7-7--4-4-4-4-----------------------|
|--4-4-4-4--2-2-2-2--7-7-7-7--2-2-2-2-----------------------|
|--4-4-4-4--2-2-2-2--7-7-7-7--------------------------------|

Intro x2
Verse x4
Chorus
Intro
Verse x4
Chorus x2
Bridge x4
Chorus x4
Intro x2

* - Listen to song for strumming pattern

Youtube URL for the song:
http://www.youtube.com/watch?v=1-iweAOmYSg
Tap to rate this tab
# A B C D E F G H I J K L M N O P Q R S T U V W X Y Z