Song name
# A B C D E F G H I J K L M N O P Q R S T U V W X Y Z

This Wild Life - Puppy Love tab

THIS WILD LIFE
PUPPY LOVE
Eb standard

Tabbed by redcookies (cambo.csc@gmail.com)

INTRO
Eb|----------3-----------------------3--3-/5--0--------------0-----------------------3-/0-------------|
Bb|-------1-----1-----1-----------1-----------------------1-----1-----1--------1----------------------|
Gb|----0-----------0-----------0-----------------------0-----------0--------0-----0-------------------|
Db|-------------------------------------------------3--------------------2-----------0----------------|
Ab|-3-----------------------2-------------------------------------------------------------------------|
Eb|---------------------------------------------------------------------------------------------------|

VERSE
Eb|-------------------------------------3-----------1-----------------------------------3-------------|
Bb|-1-----------1-----------1-----------3-----------1-----------------1-----------------3-------------|
Gb|-0-----------0-----------2-----------0-----------2-----------------0-----------------0-------------|
Db|-2-----------2-----------2-----------0-----------3-----------------2-----------------0-------------|
Ab|-3-----------2-----------0-----------2-----------3-----------------3-----------------2-------------|
Eb|-------------------------------------3-----------1-----------------------------------3-------------|

Eb|-------------------------------------------------------------3--------0----------------------------|
Bb|----------1--------------------3--1-----------------1-----------0--------0-----0-------------------|
Gb|-------0-----0-----0--------0--------0-----------2-----2-----------0--------0----------------------|
Db|----2-----------2--------0--------------0-----2-----------2----------------------------------------|
Ab|-3--------------------2--------------------0-------------------------------------------------------|
Eb|-------------------------------------------------------------3-------------------------------------|

Eb|----------3-----------------------------------------3----------------------------------------------|
Bb|-------------------------------1-----------------0-----0-----0--3-/5-/3----------------------------|
Gb|----------------------------0-----0-----0-----0-----------0--------------5--4-/5-/4----------------|
Db|-------3-----3-----3-----2-----------2-----------------------------------------------5-------------|
Ab|----3-----------3-----3----------------------------------------------------------------------------|
Eb|-1-----------------------------------------3-------------------------------------------------------|

CHORUS
Eb|----------------3--------------------------1-----------------------3-----------1--------------1----|
Bb|-1--------------3--------------1-----------1-----------1-----------3-----------1--------------1----|
Gb|-0--------------0--------------2-----------2-----------0-----------0-----------2--------------1----|
Db|-2--------------0--------------2-----------3-----------2-----------0-----------3--------------3----|
Ab|-3--------------2--------------0-----------3-----------3-----------2-----------3--------------3----|
Eb|----------------3--------------------------1-----------------------3-----------1--------------1----|

Eb|----------3-----------------------5--3-----------------0-------------------------------------------|
Bb|----------------------------------------------------------------------------3--1-------------------|
Gb|-------0-----0-----0-----------0--------0-----------0-----0-----0----------------------------------|
Db|----2-----------2-----------2--------------2-----2-----------2-----------3--------3----------------|
Ab|-3--------------------------------------------0-----------------------3--------------3-------------|
Eb|-------------------------3-----------------------------------------1-------------------------------|

Eb|----------3--------------------5--3-----------------0--------1-------------------------------------|
Bb|-------------------------------------------------------------1-------------------------------------|
Gb|-------0-----0-----0--------0--------0-----------------------1-------------------------------------|
Db|----2-----------2--------2--------------2--------3-----3-----3-------------------------------------|
Ab|-3--------------------------------------------3-----------3--3-------------------------------------|
Eb|----------------------3--------------------1-----------------1-------------------------------------|

OUTRO
Eb|----------3--------------------3--3-/5--0-----------0--------------------3-p1--1--------1----------|
Bb|-------1-----1-----1--------1--------------------1-----1-----1-----1--------------1--------1-----1-|
Gb|----0-----------0--------0--------------------0-----------0-----------1--------------1--------1--0-|
Db|-------------------------------------------3--------------------3--------------------------------2-|
Ab|-3--------------------2--------------------------------------------------------------------------3-|
Eb|---------------------------------------------------------------------------------------------------|
Tap to rate this tab
 
# A B C D E F G H I J K L M N O P Q R S T U V W X Y Z