Song name
# A B C D E F G H I J K L M N O P Q R S T U V W X Y Z

This Years Winner Is - Dont Go Now tab

This Years Winner Is - Don't Go Now (2012)

For song visit: http://www.youtube.com/watch?v=VIMiNF39iHU

www.facebook.com/thisyearswinneris

Tuning: Drop D Flat

Intro: Clean Guitar (Ben)

eb--------------------------------------------------------|
bb--------------------------------------------------------|
gb---77-7---99--9--11--11--11---14--14--14--77------------|
db---00-0---00--0---0---0---0----0---0---0---00-----------|
ab---00-0---00--0---0---0---0----0---0---0---00-----------|
db---55-5---77--7---9---9---9---12--12--12---55-----------|

Verse (Ben)

eb---------------------------------------------10-------------------------|
bb----8-7-----8-7----10-7-----8-7---8-7-----7-----------------------------|
gb--------7-------7---------------7------7--------------------------------|
db------------------------------------------------------------------  x 2-|
ab------------------------------------------------------------------------|
db------------------------------------------------------------------------|

Verse Part Two

eb-------------------------------------------------------------------|
bb---88--77--88-10-10-----88--77---55--55----------------------------|
gb---77--77--77--7--7-----77--77---77--77----------------------------|
db-------------------------------------------------------------------|
ab-------------------------------------------------------------------|
db-------------------------------------------------------------------|

Prechorus (Ben)

No guitar for 2 bars

eb--------------------------------5555-----------------------------|
bb---8888-7777-55555555--8888---------7777-88888888----------------|
gb-----------------------------------------------------------------|
db-----------------------------------------------------------------|
ab-----------------------------------------------------------------|
db-----------------------------------------------------------------|

Chorus

eb--10--------10----------10--------10----------10-----------10-----------|
bb------10---------10----------10--------10----------10-----------10------|
gb-----------7-----------7----------------------7---------7---------------|
db------------------------------------------------------------------------|
ab------------------------------------------------------------------------|
db------------------------------------------------------------------------|

Verse (No Guitar)
Verse Part 2
Chorus
Second Chorus (Repeat chorus)

Interlude (Ben Clean)

eb--0------0--------2---------2---------5--------5----------3---------3---------|
bb-----3------3---------3---------3--------3--------3----------3----------3-----|
gb--------2-------2---------2---------2-------2---------2-----------2-------2---|
db------------------------------------------------------------------------------|
ab------------------------------------------------------------------------------|
db------------------------------------------------------------------------------|

Chorus
Second Chorus
End

Don't Go Now (Ethan)

Palm mute

eb--------------------------------------------------------------------|
bb--------------------------------------------------------------------|
gb--------------------------------------------------------------------|
db----999999999-12-12-12-12-7777--------------------------------------|
ab----999999999-12-12-12-12-7777--------------------------------------|
db----999999999-12-12-12-12-7777--------------------------------------|

Verse

eb-----------------------------------------------------------------------|
bb-----------------------------------------------------------------------|
gb-----------------------------------------------------------------------|
db---55-5-55-5-77-7-77-7-99-9-99-9-12-12--12-12-12-12-14-14-14-7-7-------|
ab---55-5-55-5-77-7-77-7-99-9-99-9-12-12--12-12-12-12-14-14-14-7-7-------|
db---55-5-55-5-77-7-77-7-99-9-99-9-12-12--12-12-12-12-14-14-14-7-7-------|

Verse Part Two

Palm Mute

eb------------------------------------------------------------------|
bb------------------------------------------------------------------|
gb------------------------------------------------------------------|
db------------------------------------------------------------------|
ab--00000000--00--00-----77777777--77--77---------------------------|
db--00000000--00--00-----77777777--77--77---------------------------|

eb-----------------------------------------------------------------|
bb-----------------------------------------------------------------|
gb-----------------------------------------------------------------|
db-----------------------------------------------------------------|
ab--00000000--00--00------5555555555--55--55-----------------------|
db--00000000--00--00------5555555555--55--55-----------------------|

Pre Chorus

(Palm Mute)

eb-------------------------------------------------------------|
bb-------------------------------------------------------------|
gb-------------------------------------------------------------|
db-------------------------------------------------------------|
ab--55555555-77777777-99999999-77777777------------------------|
db--55555555-77777777-99999999-77777777------------------------|

Chorus


eb-------------------------------------------------------------|
bb-------------------------------------------------------------|
gb---77777777-77777777-7777777777777777------------------------|
db---55555555-00000000-7777777777777777------------------------|
ab---55555555-00000000-7777777777777777------------------------|
db---55555555-00000000-7777777777777777------------------------|

Break


eb--------------|
bb--------------|
gb---7----------|
db---5----------|
ab---5----------|
db---5----------|

Verse (No Guitars)
Verse Part Two
Pre-Chorus
Chorus
Chorus Part Two (Stabbed)

Interlude (Clean)

eb---<5-<3-<2-<0----------------------------------------------------------------|
bb------------------------------------------------------------------------------|
gb------------------------------------------------------------------------------|
db------------------------------------------------------------------------------|
ab------------------------------------------------------------------------------|
db------------------------------------------------------------------------------|

Chorus
Chorus Part Two (Half Time)
End


eb-----------------|
bb-----------------|
gb---7-------------|
db---5-------------|
ab---5-------------|
db---5-------------|
Tap to rate this tab
 
# A B C D E F G H I J K L M N O P Q R S T U V W X Y Z