Song name
# A B C D E F G H I J K L M N O P Q R S T U V W X Y Z

This Years Winner Is - When In Rome tab

This Years Winner Is - When In Rome

For song view: http://www.youtube.com/watch?v=dFtfAoqT4f4

www.facebook.com/thisyearswinneris

Ben

Verse

eb------------------------------------------------------------------|
bb------------------------------------------------------------------|
gb------------------------------------------------------------------|
db---5--0------5--7------------------------ 5--0--5-4-4-5-5-5-------|
ab---5--0------5--7---00-0-00-0-00-0-0-----5--0--5-4-4-5-5-5--------|
db---5--0------5--7---00-0-00-0-00-0-0-----5--0--5-4-4-5-5-5--------|

eb------------------------------------------------------------------------------|
bb------------------------------------------------------------------------------|
gb------------------------------------------------------------------------------|
db---5--0------5--7------5------------------- 5--0--5-4-4-5-5-5-----------------|
ab---5--0------5--7---00----00-7-00-5-0------5--0--5-4-4-5-5-5------------------|
db---5--0------5--7---00----00---00----------5--0--5-4-4-5-5-5------------------|

Pre-Chorus


eb-------------------------------------------------------------------------|
bb---77-7--77-7--7-7-7-7-------88-8--88-8-8-8-8-8--------------------------|
gb---77-7--77-7--7-7-7-7-------77-7--77-7-7-7-7-7--------------------------|
db---00-0--00-0--0-0-0-0-------55-5--55-5-5-5-5-5--------------------------|
ab-------------------------------------------------------------------------|
db-------------------------------------------------------------------------|

Break


eb---------------------------------------------------------------|
bb---------------------------------------------------------------|
gb---7-7-77-7-7-77-----------------------------------------------|
db---------------------------------------------------------------|
ab---5-5-55-5-5-55-----------------------------------------------|
db---------------------------------------------------------------|

Chorus

Strum to the rhythm

eb---10---10----10---10-----------------------------------|
bb----8----7-----8---10-----------------------------------|
gb----7----7-----7----7-----------------------------------|
db--------------------------------------------------------|
ab--------------------------------------------------------|
db--------------------------------------------------------|

First Breakdown

eb-------------------------------------------------------------|
bb-------------------------------------------------------------|
gb-------------------------------------------------------------|
db-------------------------------------------------------------|
ab---00--00--0--0--0-0--2--0-----------------------------------|
db---00--00--0--0--0-0-----------------------------------------|

Verse
Pre-chorus
Break
Chorus
First Breakdown

Breakdown Riff

eb-----------------------------------------------------------------|
bb-----------------------------------------------------------------|
gb-----------------------------------------------------------------|
db-----------------------------------------------------------------|
ab---------5-7-----5-7-----7-9--------7-9-----10-9-----------------|
db---0000------00------00------0000------00------------------------|

Prechorus
Break
Chorus

Final Chorus

eb--10-------------10-------------10--------------10-----------------10-----------|
bb-------8------8-------7------7--------8------8-------10------10----10-----------|
gb----------7---------------7---------------7---------------7---------7-----------|
db--------------------------------------------------------------------------------|
ab--------------------------------------------------------------------------------|
db--------------------------------------------------------------------------------|

End


Ethan

Verse

eb------------10----------------10-----------------------------|
bb-------10-------10-----10-------10---------------------------|
gb---7------------------7--------------------------------------|
db-------------------------------------------------------------|
ab-------------------------------------------------------------|
db-------------------------------------------------------------|

Pre Chorus

eb--------------------------------------------------------------|
bb--------------------------------------------------------------|
gb--------------------------------------------------------------|
db--------------------------------------------------------------|
ab----55-5--7-7--99999999-5*-55-5---7-7--00000000---------------|
db----55-5--7-7--99999999----55-5---7-7--00000000---------------|

Break (No Playing)

Chorus

eb----------------------------------------------------------------------|
bb----------------------------------------------------------------------|
gb--77777777---99999999----77777777---77777777--------------------------|
db--55555555---77777777----44444444---55555555--------------------------|
ab--55555555---77777777----44444444---55555555--------------------------|
db--55555555---77777777----44444444---55555555--------------------------|

eb-------------------------------------------------------------------|
bb-------------------------------------------------------------------|
gb--77------99999999----77777777---77777777--------------------------|
db--55-xxx--77777777----44444444---55555555--------------------------|
ab--55-xxx--77777777----44444444---55555555--------------------------|
db--55-xxx--77777777----44444444---55555555--------------------------|

First Breakdown

eb-----------------------------------------------------------------|
bb-----------------------------------------------------------------|
gb-----------------------------------------------------------------|
db-----------------------------------------------------------------|
ab---00--00--0--0--0-0--5--4---------------------------------------|
db---00--00--0--0--0-0---------------------------------------------|

Verse
Pre-Chorus
Break
Chorus

First Break Down
Breakdown

eb--------------------------------------------------------------|
bb--------------------------------------------------------------|
gb--------------------------------------------------------------|
db-----------------------9--7-----------------------------------|
ab---00--00--0--0--0-0--9--7------------------------------------|
db---00--00--0--0--0-0--9--7------------------------------------|

Prechorus
Break
Chorus
Final Chorus (Half Time)

End

eb----------------------------------------------------|
bb---3------------------------------------------------|
gb---2------------------------------------------------|
db---0------------------------------------------------|
ab---0------------------------------------------------|
db---0------------------------------------------------|
Tap to rate this tab
 
# A B C D E F G H I J K L M N O P Q R S T U V W X Y Z