Song name
# A B C D E F G H I J K L M N O P Q R S T U V W X Y Z

Thom Yorke - Black Swan tab

#----------------------------------PLEASE NOTE---------------------------------#
#This file is the author's own work and represents their interpretation of the #
#song. You may only use this file for private study, scholarship, or research. #
#------------------------------------------------------------------------------#

BLACK SWAN
As recorded by Megadeth


Transcribed by Acoustica_


 

 

Gtr I (E A D G B E) - 'Rhythm Guitar'
Gtr II (E A D G B E) - 'Rhythm Guitar'
Gtr III (E A D G B E) - 'Rhythm Guitar'
Gtr IV (E A D G B E) - 'Lead Guitar'


  Q=146
 4/4
  Gtr I
  H    Q  E E   +H     +E  E E E   +H     +E  E E E   +E  E +E  E +E  E E E
|-------------|------------------|------------------|------------------------|
|-------------|------------3-2---|------------3-2-5-|-(5)-7-(7)--------------|
|-----------4-|-(4)----(4)-----2-|-(2)----(2)-------|-----------7-(7)-7-6----|
|-------------|------------------|------------------|---------------------5--|
|-------------|------------------|------------------|------------------------|
|-------------|------------------|------------------|------------------------|


  +E  E E E +E  E E E   +H     +E  E E E
|---------------------|------------------|
|-----3-2-------3-2---|------------3-2---|
|-------------------4-|-(4)----(4)-----2-|
|-(5)-----4-(4)-------|------------------|
|---------------------|------------------|
|---------------------|------------------|
|
| Gtr II
|  H         Q    E E   +H.          E E
|---------------------|------------------|
|-------------------3-|-(3)------------2-|
|-------------------4-|-(4)------------2-|
|---------------------|------------------|
|---------------------|------------------|
|---------------------|------------------|


  +H     +E  E E E   +E  E +E  E +E  E E E
|------------------|-----------------------|
|------------3-2-5-|-(5)-7-(7)-------------|
|-(2)----(2)-------|-----------7-(7)-7-6---|
|------------------|---------------------5-|
|------------------|-----------------------|
|------------------|-----------------------|
|
| +H.          E E   +E  E  E  E +E  E E E
|------------------|-----------------------|
|-(2)------------2-|-(2)-2-----0-(0)-0---0-|
|-(2)------------2-|-(2)-2-----0-(0)-0---0-|
|------------------|-----------------------|
|------------------|-----------------------|
|------------------|-----------------------|


  +E  E E E +E  E E E   +H     +E  E E E
|---------------------|------------------|
|-----3-2-------3-2---|------------3-2---|
|-------------------4-|-(4)----(4)-----2-|
|-(5)-----4-(4)-------|------------------|
|---------------------|------------------|
|---------------------|------------------|
|
| +E  E E E +E  E E E   +H.          E E
|---------------------|------------------|
|-(0)-0-------------3-|-(3)------------2-|
|-(0)-0---3-(3)-3---4-|-(4)------------2-|
|---------4-(4)-4-----|------------------|
|---------------------|------------------|
|---------------------|------------------|


  +H     +E  E E E   +E  E +E  E +E  E E E
|------------------|-----------------------|
|------------3-2-5-|-(5)-7-(7)-------------|
|-(2)----(2)-------|-----------7-(7)-7-6---|
|------------------|---------------------5-|
|------------------|-----------------------|
|------------------|-----------------------|
|
| +H.          E E   +E  E  E  E +E  E E E
|------------------|-----------------------|
|-(2)------------2-|-(2)-2-----0-(0)-0---0-|
|-(2)------------2-|-(2)-2-----0-(0)-0---0-|
|------------------|-----------------------|
|------------------|-----------------------|
|------------------|-----------------------|


  +E  E E E +E  E E E   +E  E E E E E E E   +Q   Q  Q  E E   +E  E E E E E E E
|---------------------|-------------------|----------------|-------------------|
|-----3-2-------------|-------------------|----------------|-------------------|
|---------------------|-------------------|----------------|-------------------|
|-(5)-----4-(4)-------|-------------------|----------------|-------------------|
|---------------------|-----7-5---7-5-----|----------------|-----7-5---7-5-----|
|---------------4-5-7-|-(7)-----7-----7-5-|-(5)----------0-|-(0)-----0-----0-7-|
|
| +E  E E E +E  E E E   +E  E E E E E E E   +Q   Q  Q  E E   +E  E E E E E E E
|---------------------|-------------------|----------------|-------------------|
|-(0)-0---------------|-------------------|----------------|-------------------|
|-(0)-0---3-(3)-------|-------------------|----------------|-------------------|
|---------4-(4)-------|-------------------|----------------|-------------------|
|---------------------|-----7-5---7-5-----|----------------|-----7-5---7-5-----|
|---------------4-5-7-|-(7)-----7-----7-5-|-(5)----------0-|-(0)-----0-----0-7-|


  Gtrs I, II
  +Q   Q  Q  E E   +E  E E E E E E E   +E  E E E E E E E   +E  E E E E E E E
|----------------|-------------------|-------------------|-------------------|
|----------------|-------------------|-------------------|-------------------|
|----------------|-------------------|-------------------|-------------------|
|----------------|-------------------|-------------------|-------------------|
|----------------|-----7-5---7-5-----|-----7-5---7-5-----|-----7-5---7-5-----|
|-(7)----------7-|-(7)-----7-----7-5-|-(5)-----5-----5-0-|-(0)-----0-----0-7-|


  +E  E E E E E E E   +E  E E E E E E E   +Q   Q  Q  E E   +E  E E E E E E E
|-------------------|-------------------|----------------|-------------------|
|-------------------|-------------------|----------------|-------------------|
|-------------------|-------------------|----------------|-------------------|
|-------------------|-------------------|----------------|-------------------|
|-----7-5---7-5-----|-----7-5---7-5-----|----------------|-----7-5---7-5-----|
|-(7)-----7-----5-7-|-(7)-----7-----7-5-|-(5)----------0-|-(0)-----0-----0-7-|


  +Q   Q  Q  E E   +E  E E E E E E E   +E  E E E E E E E   +E  E E E E E E E
|----------------|-------------------|-------------------|-------------------|
|----------------|-------------------|-------------------|-------------------|
|----------------|-------------------|-------------------|-------------------|
|----------------|-------------------|-------------------|-------------------|
|----------------|-----7-5---7-5-----|-----7-5---7-5-----|-----7-5---7-5-----|
|-(7)----------7-|-(7)-----7-----7-5-|-(5)-----5-----5-0-|-(0)-----0-----0-7-|


  +E  E E E E E E E   Q  S S E E E E E
|-------------------|------------------|
|-------------------|------------------|
|-------------------|------------------|
|-------------------|-4----------4---2-|
|-----5-7-8-7-5-----|----2-2-2-2-2-2-4-|
|-(7)-----------7-5-|-7----------------|


  +E  E S S E E E E E   +E  E S S E E E E E
|---------------------|----------------------|
|---------------------|----------------------|
|---------------------|----------------------|
|-(2)-----------2---4-|-(4)-----------4------|
|-(4)-4-4-4-4-4-4-4-5-|-(5)-5-5-5-5-5-5-5----|
|---------------------|-------------------3--|


  +E  E E E E E E E   +E  E S S E E E E E
|-------------------|---------------------|
|-------------------|---------------------|
|-------------------|---------------------|
|---------0-------4-|-(4)-----------4---2-|
|-------------4-----|-----2-2-2-2-2-2-2-4-|
|-(3)-2---------5-7-|-(7)-----------------|


  +E  E S S E E E E E   +E  E S S E E E E E
|---------------------|----------------------|
|---------------------|----------------------|
|---------------------|----------------------|
|-(2)-----------2---4-|-(4)-----------4------|
|-(4)-4-4-4-4-4-4-4-5-|-(5)-5-5-5-5-5-5-5----|
|---------------------|-------------------3--|


  +E  E E E E E E E   +E  E E E E E E E   Q.   E +Q   Q    +E  E E E E E E E
|-------------------|-------------------|----------------|-------------------|
|-------------------|-------------------|----------------|-------------------|
|-------------------|-------------------|------2-(2)-----|-------------------|
|---------0---------|---------7---------|-4----0-(0)-----|-------------------|
|-------------4---7-|-(7)-8-9---9-8-7-5-|------0-(0)--4--|-(4)---------------|
|-(3)-2---------5---|-------------------|-7-----------2--|-(2)-2-2-2-2-2-2-2-|


  Q.   E +Q   Q    +E  E E E E E E E   Q.   E +Q   Q    +E  E E E E E E E
|----------------|-------------------|----------------|-------------------|
|----------------|-------------------|----------------|-------------------|
|------2-(2)-----|-------------------|------2-(2)-----|-------------------|
|-4----0-(0)-----|-------------------|-4----0-(0)-----|-------------------|
|-2----0-(0)--4--|-(4)---------------|-2----0-(0)--4--|-(4)---------------|
|-------------2--|-(2)-2-2-2-2-2-2-2-|-------------2--|-(2)-2-2-2-2-2-2-2-|


  Gtr I
  Q.   E +Q   Q    +E  E E E E  E   E  E    H     +E  E E E   +H     +E  E E E
|----------------|-----------------------|------------------|------------------|
|----------------|-----------------------|------------3-2---|------------3-2-5-|
|------2-(2)-----|-----------------------|--4-----(4)-----2-|-(2)----(2)-------|
|-4----0-(0)-----|-----------------------|------------------|------------------|
|-2----0-(0)--4--|-(4)-------------------|------------------|------------------|
|-------------2--|-(2)-2-2-2-2--2---2--0-|------------------|------------------|
|
| Gtr II
| Q.   E +Q   Q    +E  E E E E  E   E  E    H.          E E   +H.          E E
|----------------|-----------------------|------------------|------------------|
|----------------|-----------------------|--3-------------2-|-(2)------------2-|
|------2-(2)-----|-----------------------|--4-------------2-|-(2)------------2-|
|-4----0-(0)-----|-----------------------|------------------|------------------|
|-2----0-(0)--4--|-(4)-------------------|------------------|------------------|
|-------------2--|-(2)-2-2-2-2--2---2--0-|------------------|------------------|
|
| Gtr IV                                   Gtrs III, IV
| W                 H        E  E  +Q       H.          Q      W
|----------------|-------------20-(20)---|-19---------------|------------------|
|----------------|-----------------------|------------------|------------------|
|----------------|-----------------------|------------------|------------------|
|----------------|-----------------------|------------------|------------------|
|----------------|-----------------------|------------------|------------------|
|----------------|-----------------------|------------------|------------------|


  +E  E +E  E +E  E E E   +E  E E E +E  E E E
|-----------------------|---------------------|
|-(5)-7-(7)-------------|-----3-2-------3-2---|
|-----------7-(7)-7-6---|-------------------4-|
|---------------------5-|-(5)-----4-(4)-------|
|-----------------------|---------------------|
|-----------------------|---------------------|
|
| +E  E  E  E +E  E E E   +E  E E E +E  E E E
|-----------------------|---------------------|
|-(2)-2-----0-(0)-0---0-|-(0)-0-------------3-|
|-(2)-2-----0-(0)-0---0-|-(0)-0---3-(3)-3---4-|
|-----------------------|---------4-(4)-4-----|
|-----------------------|---------------------|
|-----------------------|---------------------|
|
|  W                       H         E  E E E
|-----------------------|---------------------|
|-----------------------|---------------------|
|-----------------------|---------------------|
|-----------------------|-------------------4-|
|-----------------------|---------------4---2-|
|-----------------------|---------------2-----|


  +H     +E  E E E   +H     +E  E E E
|------------------|------------------|
|------------3-2---|------------3-2-5-|
|-(4)----(4)-----2-|-(2)----(2)-------|
|------------------|------------------|
|------------------|------------------|
|------------------|------------------|
|
| +H.          E E   +H.          E E
|------------------|------------------|
|-(3)------------2-|-(2)------------2-|
|-(4)------------2-|-(2)------------2-|
|------------------|------------------|
|------------------|------------------|
|------------------|------------------|
|
| Gtr III
| +H      H           W
|------------------|------------------|
|------------------|------------------|
|------------------|------------------|
|-(4)--------------|------------------|
|-(2)--------------|------------------|
|------------------|------------------|


  +E  E +E  E +E  E E E   +E  E E E +E  E E E
|-----------------------|---------------------|
|-(5)-7-(7)-------------|-----3-2-------------|
|-----------7-(7)-7-6---|---------------------|
|---------------------5-|-(5)-----4-(4)-------|
|-----------------------|---------------------|
|-----------------------|---------------4-5-7-|
|
| +E  E  E  E +E  E E E   +E  E E E +E  E E E
|-----------------------|---------------------|
|-(2)-2-----0-(0)-0---0-|-(0)-0---------------|
|-(2)-2-----0-(0)-0---0-|-(0)-0---3-(3)-------|
|-----------------------|---------4-(4)-------|
|-----------------------|---------------------|
|-----------------------|---------------4-5-7-|


  +E  E E E E E E E   +E  E E E E E E E
|-------------------|-------------------|
|-------------------|-------------------|
|-------------------|-------------------|
|-------------------|-------------------|
|-----7-5---7-5-----|-----7-5---7-5-----|
|-(7)-----7-----7-5-|-(5)-----5-----5-0-|
|
| +E  E E E E E E E   +E  E E E E E E E
|-------------------|-------------------|
|-------------------|-------------------|
|-------------------|-------------------|
|-------------------|-------------------|
|-----7-5---7-5-----|-----7-5---7-5-----|
|-(7)-----7-----7-5-|-(5)-----5-----5-0-|


  Gtrs I, II
  +E  E E E E E E E   +E  E E E E E E E
|-------------------|-------------------|
|-------------------|-------------------|
|-------------------|-------------------|
|-------------------|-------------------|
|-----7-5---7-5-----|-----7-5---7-5-----|
|-(0)-----0-----0-7-|-(7)-----7-----5-7-|


  +E  E E E E E E E   +E  E E E E E E E
|-------------------|-------------------|
|-------------------|-------------------|
|-------------------|-------------------|
|-------------------|-------------------|
|-----7-5---7-5-----|-----7-5---7-5-----|
|-(7)-----7-----7-5-|-(5)-----5-----5-0-|


  +E  E E E E E E E   +E  E E E E E E E
|-------------------|-------------------|
|-------------------|-------------------|
|-------------------|-------------------|
|-------------------|-------------------|
|-----7-5---7-5-----|-----7-5---7-5-----|
|-(0)-----0-----0-7-|-(7)-----7-----5-7-|


  +E  E E E E E E E   +E  E E E E E E E
|-------------------|-------------------|
|-------------------|-------------------|
|-------------------|-------------------|
|-------------------|-------------------|
|-----7-5---7-5-----|-----7-5---7-5-----|
|-(7)-----7-----7-5-|-(5)-----5-----5-0-|


  +E  E E E E E E E   +E  E E E E E E E
|-------------------|-------------------|
|-------------------|-------------------|
|-------------------|-------------------|
|-------------------|-------------------|
|-----7-5---7-5-----|-----7-5---7-5-----|
|-(0)-----0-----0-7-|-(7)-----7-----5-7-|


  +E  E E E E E E E   +E  E E E E E E E
|-------------------|-------------------|
|-------------------|-------------------|
|-------------------|-------------------|
|-------------------|-------------------|
|-----7-5---7-5-----|-----7-5---7-5-----|
|-(7)-----7-----7-5-|-(5)-----5-----5-0-|


  +E  E E E E E E E   +E  E E E E E E E
|-------------------|-------------------|
|-------------------|-------------------|
|-------------------|-------------------|
|-------------------|-------------------|
|-----7-5---7-5-----|-----5-7-8-7-5-----|
|-(0)-----0-----0-7-|-(7)-----------7-5-|


  Q.   E E E E E   +E  E +E  E +E  E E E
|----------------|-----------------------|
|----------------|-----------------------|
|----------------|-----------------------|
|------------9-7-|-(7)-------------------|
|------5-7-9-----|-----9-(9)-7-(7)-8-7-5-|
|-7--------------|-----------------------|


  Q.   E E E E E   +E  E +E  E +E  E E E
|----------------|-----------------------|
|----------------|-----------------------|
|----------------|-----------------------|
|------------9-7-|-(7)-------7-(7)---7-9-|
|------5-7-9-----|-----9-(9)-------9-----|
|-7--------------|-----------------------|


  Q.   E E E E E   +E  E +E  E +E  E E E
|----------------|-----------------------|
|----------------|-----------------------|
|----------------|-----------------------|
|------------9-7-|-(7)-------------------|
|------5-7-9-----|-----9-(9)-7-(7)-8-7-5-|
|-7--------------|-----------------------|


  Q  S S E S S E S S E   +Q   S S E S S E S S E   +E  E S S E E E E E
|----------------------|------------------------|---------------------|
|----------------------|------------------------|---------------------|
|----------------------|------------------------|---------------------|
|-4------------------4-|-(4)------------------4-|-(4)-----------4---2-|
|----0-----0---4-0---2-|-(2)--0-----0---4-0---2-|-(2)-2-2-2-2-2-2-2-4-|
|-7--0-----0---2-0-----|------0-----0---2-0-----|---------------------|


  +E  E S S E E E E E   +E  E S S E E E E E
|---------------------|---------------------|
|---------------------|---------------------|
|---------------------|---------------------|
|-(2)-----------2---4-|-(4)-----------4-----|
|-(4)-4-4-4-4-4-4-4-5-|-(5)-5-5-5-5-5-5-5---|
|---------------------|-------------------3-|
|
| Gtr IV
|  W                     W
|---------------------|---------------------|
|---------------------|---------------------|
|---------------------|---------------------|
|---------------------|---------------------|
|---------------------|---------------------|
|---------------------|---------------------|


  +E  E E E E E E E    Q.   E +Q   Q
|-------------------|-----------------|
|-------------------|-----------------|
|-------------------|-------2-(2)-----|
|---------0-------4-|--4----0-(0)-----|
|-------------4-----|-------0-(0)--4--|
|-(3)-2---------5-7-|--7-----------2--|
|
|  W                   W
|-------------------|-19--------------|
|-------------------|-----------------|
|-------------------|-----------------|
|-------------------|-----------------|
|-------------------|-----------------|
|-------------------|-----------------|


   +E  E E E E E E E   Q.   E +Q   Q    +E  E E E E E E E   Q.   E +Q   Q
|--------------------|----------------|-------------------|----------------|
|--------------------|----------------|-------------------|----------------|
|--------------------|------2-(2)-----|-------------------|------2-(2)-----|
|--------------------|-4----0-(0)-----|-------------------|-4----0-(0)-----|
|--(4)---------------|-2----0-(0)--4--|-(4)---------------|-2----0-(0)--4--|
|--(2)-2-2-2-2-2-2-2-|-------------2--|-(2)-2-2-2-2-2-2-2-|-------------2--|
|
|  +Q    Q   H         W                 W                  W
|-(19)---------------|----------------|-------------------|----------------|
|--------------------|----------------|-------------------|----------------|
|--------------------|----------------|-------------------|----------------|
|--------------------|----------------|-------------------|----------------|
|--------------------|----------------|-------------------|----------------|
|--------------------|----------------|-------------------|----------------|


  +E  E E E E E E E   Q.   E +Q   Q
|-------------------|----------------|
|-------------------|----------------|
|-------------------|------2-(2)-----|
|-------------------|-4----0-(0)-----|
|-(4)---------------|-2----0-(0)--4--|
|-(2)-2-2-2-2-2-2-2-|-------------2--|
|
|  W                  W
|-------------------|----------------|
|-------------------|----------------|
|-------------------|----------------|
|-------------------|----------------|
|-------------------|----------------|
|-------------------|----------------|


  +E  E E E E  E   E  E    Q.    E  +Q    Q
|-----------------------|--------------------|
|-----------------------|--------------------|
|-----------------------|--------4--(4)------|
|-----------------------|--6-----2--(2)---1--|
|-(4)-------------------|--4-----------------|
|-(2)-2-2-2-2--2---2--2-|-----------------4--|
|
|  H        E  E  +Q       Q.    E  +Q    Q
|-----------------------|--------------------|
|-----------------------|--------------------|
|-----------------------|--------------------|
|-----------------------|-23----23-(23)--23--|
|-------------21-(21)---|--------------------|
|-----------------------|--------------------|


   +E   E  E  E  E  E  E  E    Q.        E  +Q     Q
|---------------------------|-----------------------------|
|---------------------------|-----------------------------|
|---------------------------|------------4--(4)-----------|
|--(1)----------------------|--6---------2--(2)----1------|
|---------------------------|--4--------------------------|
|--(4)--4--4--4--4--4--4--4-|----------------------4------|
|
|  +E   E  E  E  E  E  E  E    E   E  E  E  +Q    +S   E.
|---------------------------|-----------------------------|
|---------------------------|-----------------------------|
|---------------------------|-----20----------------------|
|-(23)-21-23-21-23-21-23-21-|-23-----21-------------------|
|---------------------------|-----------23-(23)--(23)-23--|
|---------------------------|-----------------------------|


   +E   E  E  E  E E      E     E   Q.          E  +Q   Q
|---------------------------------|------------------------|
|---------------------------------|------------------------|
|---------------------------------|-------------4--(4)-----|
|--(1)----------------------------|-6-----------2--(2)--1--|
|---------------------------------|-4----------------------|
|--(4)--4--4--4--4-4------4-----4-|---------------------4--|
|
|  +E   E  E  E  E S  S  +S  S  E   S   E.  +Q     +H
|---------------------------------|------------------------|
|---------------------------------|------------------------|
|---------------------------------|------------------------|
|---------------20---20-(20)---20-|----18--(18)---(18)-----|
|-(23)-21-23-21-------------------|------------------------|
|---------------------------------|------------------------|


   +E     E    E E    E   E  E    E   Q.            E    +Q           Q
|-----------------------------------|------------------------------------------|
|-----------------------------------|------------------------------------------|
|-----------------------------------|---------------4----(4)-------------------|
|--(1)------------------------------|-6-------------2----(2)----------1--------|
|-----------------------------------|-4----------------------------------------|
|--(4)----4----4-4----4---4--4----4-|---------------------------------4--------|
|
|  +S   E   S  E S S  S S E +S  S E   S  S S  S S S S  S  S   S  S S  S  S S S
|-----------------------------------|------------------------------------------|
|-----------------------------------|--------------------------------------7-5-|
|-------------15--------------------|------------------------------------9---6-|
|-(18)------------------------------|------------------------10----9-10-11-----|
|----------------0--------0-(0)-----|----7-9-10-9-7-9-10-11--14-11-------------|
|------15------------12-------------|-9----------------------------------------|


  +E    E   E     E     E     E     E     E
|----------------------------------------------|
|----------------------------------------------|
|----------------------------------------------|
|-(1)------------------------------------------|
|----------------------------------------------|
|-(4)---4---4-----4-----4-----4-----4-----4----|
|
|  S  S S S S  S  S  S  S  S  S  S  S  S  S  S
|----------------------------------------------|
|--5--5-7-8-9-11-------11-12-14-16----16-14-12-|
|-------------13-12-13----------18-16----------|
|----------------------------------------------|
|----------------------------------------------|
|----------------------------------------------|


   Q       S  S  E   E      E  E  E       +E   E   S   S  E  E  E      E   E
|--------------------------------------|-------------------------------------|
|--------------------------------------|-------------------------------------|
|--------------------------------------|-------------------------------------|
|--4------------------------4-----2----|--(2)-------------------2----------4-|
|----------2--2--2---2------2--2--4----|--(4)--4---4---4--4--4--4------4---5-|
|--7-----------------------------------|-------------------------------------|
|
|  E.  S  +E     E  +S   E.    E.    S    +E   E  +S   E.    E.    S  +E   E
|--------------------------------------|-------------------------------------|
|-10--10-(10)---10-(10)-10----10----10-|-(10)-10-(10)-10----10----10-(10)-10-|
|--------------------------------------|-------------------------------------|
|--------------------------------------|-------------------------------------|
|--------------------------------------|-------------------------------------|
|--------------------------------------|-------------------------------------|


   +E   E   S   S  E  E  E      E   E    +E   E   E      E  E  E      E   E
|-------------------------------------|-------------------------------------|
|-------------------------------------|-------------------------------------|
|-------------------------------------|-------------------------------------|
|--(4)-------------------4------------|------------------0----------------4-|
|--(5)--5---5---5--5--5--5------5-----|------------------------4------------|
|-----------------------------------3-|--(3)--2-----------------------5---7-|
|
|  +E   E  +S   E.    E.    S  +E   E    +E   E  +S   E.    E.    S  +E   E
|-------------------------------------|-------------------------------------|
|-(10)-10-(10)-10----10----10-(10)-10-|-(10)-10-(10)-10----10----10-(10)-10-|
|-------------------------------------|-------------------------------------|
|-------------------------------------|-------------------------------------|
|-------------------------------------|-------------------------------------|
|-------------------------------------|-------------------------------------|


   +E   E   S   S  E  E  E      E  E   +E  E S S E E E E E
|------------------------------------|-----------------------|
|------------------------------------|-----------------------|
|------------------------------------|-----------------------|
|--(4)-------------------4---------2-|-(2)-----------2---4---|
|-------2---2---2--2--2--2------2--4-|-(4)-4-4-4-4-4-4-4-5---|
|--(7)-------------------------------|-----------------------|
|
|  +E   E  +S   E.    E.    S  +E  E    W
|------------------------------------|-----------------------|
|-(10)-10-(10)-10----10----10-(10)---|-----------------------|
|------------------------------------|-----------------------|
|------------------------------------|-----------------------|
|------------------------------------|-----------------------|
|------------------------------------|-----------------------|


  +E  E S S E E E E E   +E  E E E E E E E
|---------------------|-------------------|
|---------------------|-------------------|
|---------------------|-------------------|
|-(4)-----------4-----|---------0---------|
|-(5)-5-5-5-5-5-5-5---|-------------4---7-|
|-------------------3-|-(3)-2---------5---|


  +E  E E E E E E E   Q.   E +Q   Q
|-------------------|-----------------|
|-------------------|-----------------|
|-------------------|------2-(2)------|
|---------7---------|-4----0-(0)------|
|-(7)-8-9---9-8-7-5-|------0-(0)--4---|
|-------------------|-7-----------2---|


  +E  E E E E E E E   Q.   E +Q   Q
|-------------------|----------------|
|-------------------|----------------|
|-------------------|------2-(2)-----|
|-------------------|-4----0-(0)-----|
|-(4)---------------|-2----0-(0)--4--|
|-(2)-2-2-2-2-2-2-2-|-------------2--|


  +E  S S E S S E S S S S S S   Q.   E +Q   Q
|-----------------------------|-----------------|
|-----------------------------|-----------------|
|-----------------------------|------2-(2)------|
|-----------------------------|-4----0-(0)------|
|-(4)-------------------------|-2----0-(0)--4---|
|-(2)-2-2-2-2-2-2-2-2-2-2-2-2-|-------------2---|


  +E  E E E E E E E   Q.   E +Q   Q
|-------------------|----------------|
|-------------------|----------------|
|-------------------|------2-(2)-----|
|-------------------|-4----0-(0)-----|
|-(4)---------------|-2----0-(0)--4--|
|-(2)-2-2-2-2-2-2-2-|-------------2--|
|
| Gtr IV
|  W                  W
|-------------------|----------------|
|-------------------|----------------|
|-------------------|----------------|
|-------------------|----------------|
|-------------------|----------------|
|-------------------|----------------|


  +E  S S E S S E  S S   S  S S S    Q.   E +Q   Q
|---------------------------------|------------------|
|---------------------------------|------------------|
|---------------------------------|-------2-(2)------|
|---------------------------------|--4----0-(0)------|
|-(4)-----------------------------|--2----0-(0)--4---|
|-(2)-2-2-2-2-2-2--2-2---2--2-2-2-|--------------2---|
|
|  H            E  E    +Q           W
|-----------------20---(20)-------|-19---------------|
|---------------------------------|------------------|
|---------------------------------|------------------|
|---------------------------------|------------------|
|---------------------------------|------------------|
|---------------------------------|------------------|


   +E  S S E S S E S S S S S S   Q.   E +Q   Q    +E  S S E S S E S S S S S S
|------------------------------|----------------|------------------------------|
|------------------------------|----------------|------------------------------|
|------------------------------|------2-(2)-----|------------------------------|
|------------------------------|-4----0-(0)-----|------------------------------|
|--(4)-------------------------|-2----0-(0)--4--|-(4)--------------------------|
|--(2)-2-2-2-2-2-2-2-2-2-2-2-2-|-------------2--|-(2)-2-2-2-2-2-2-2-2-2-2-2-2--|
|
|  +Q      Q     H               W                 W
|-(19)-------------------------|----------------|------------------------------|
|------------------------------|----------------|------------------------------|
|------------------------------|----------------|------------------------------|
|------------------------------|----------------|------------------------------|
|------------------------------|----------------|------------------------------|
|------------------------------|----------------|------------------------------|


  Q.   E +Q   Q    +E  S S E S S E S S S S S S   Q.   E +Q   Q
|----------------|-----------------------------|-----------------|
|----------------|-----------------------------|-----------------|
|------2-(2)-----|-----------------------------|------2-(2)------|
|-4----0-(0)-----|-----------------------------|-4----0-(0)------|
|-2----0-(0)--4--|-(4)-------------------------|-2----0-(0)--4---|
|-------------2--|-(2)-2-2-2-2-2-2-2-2-2-2-2-2-|-------------2---|


  +E  S S E S S E S S S S S S    Q.         E    +E   E     E     S S
|-----------------------------|----------------------------------------|
|-----------------------------|-----------------------3----------------|
|-----------------------------|-------------2----(2)--0-----6----------|
|-----------------------------|--4----------0----(0)--------4-----4-4--|
|-(4)-------------------------|--2-------------------------------------|
|-(2)-2-2-2-2-2-2-2-2-2-2-2-2-|----------------------------------------|
|
| Gtr IV
|  W                             Q    S  S  S  S  E   S  S  S  S  E
|-----------------------------|----------------------------------------|
|-----------------------------|-17---19-17----17-17--19-17-17-19-17----|
|-----------------------------|------------18-----------18-------------|
|-----------------------------|----------------------------------------|
|-----------------------------|----------------------------------------|
|-----------------------------|----------------------------------------|


    S  S S S S S  S  S  S  S  S  S  S  S  S  S
|----------------------------------------------|
|----------------------------------------------|
|----------------------------------------------|
|---4--4-4-4-4-4--4--4--4--4--4--4--4--4--4--4-|
|----------------------------------------------|
|----------------------------------------------|
|
|  +Q.            S  S  S  S  S  S  S  S  S  S
|----------------------------------------------|
|-(17)-----------19-17----17-19-17-------19-17-|
|----------------------18----------18-17-------|
|----------------------------------------------|
|----------------------------------------------|
|----------------------------------------------|


   Q.                 E    +E      E     E     S S
|--------------------------------------------------|
|--------------------------------------------------|
|----------------------------------7-----6---------|
|--4------------------7----(7)-----5-----4-----4-4-|
|---------------------5----(5)---------------------|
|--7-----------------------------------------------|
|
|  S   S  S  S  S  S  S  S  S   S  S  S  S  S  E
|--------------------------------------------------|
|-19--17----17-19-17-19-17--------19-17-19-17------|
|--------18----------------18--17-------------18---|
|--------------------------------------------------|
|--------------------------------------------------|
|--------------------------------------------------|


    S   S  S  S  S  S  S  S  S  S  S  S  S  S  S  S    Q.   E +E   E E    S S
|---------------------------------------------------|--------------------------|
|---------------------------------------------------|--------------------------|
|---------------------------------------------------|--------------7-6---------|
|---4---4--4--4--4--4--4--4--4--4--4--4--4--4--4--4-|--4----7-(7)--5-4----4-4--|
|---------------------------------------------------|-------5-(5)--------------|
|---------------------------------------------------|--7-----------------------|
|
|  +S   S  S  S  S  S  S  S  S  S  S  S  S  S  S  S    H       E   E S  E   S
|---------------------------------------------------|--------------------------|
|------------14-------------------------------------|-12----------12---12------|
|-(18)-17-16----14----16----14----------14----------|--------------------------|
|------------------16----16----16-16-14----16----14-|--------------------------|
|------------------------------------16----19-16----|--------------------------|
|---------------------------------------------------|--------------------------|


   S  S S S S S  S  S  S  S S S S S S  S
|----------------------------------------|
|----------------------------------------|
|----------------------------------------|
|--4--4-4-4-4-4--4--4--4--4-4-4-4-4-4--4-|
|----------------------------------------|
|----------------------------------------|
|
|  Q.            S  S  Q.           S  S
|-----------------------------------9-12-|
|-12------------10-12-10-----------------|
|----------------------------------------|
|----------------------------------------|
|----------------------------------------|
|----------------------------------------|


   Q.                 E    +E      E     Q
|---------------------------------------------------|
|---------------------------------------------------|
|---------------------------------------------------|
|--4------------------7----(7)----------------------|
|---------------------5----(5)-----5-----4----------|
|--7-------------------------------3-----2----------|
|
|  S   S  S  S  S  S  S  S  S   S  S  S  S  S  S  S
|-14--17--------------------------------------------|
|--------19-17-19-17-------14--12-10-12-14-12-14-12-|
|--------------------18-16--------------------------|
|---------------------------------------------------|
|---------------------------------------------------|
|---------------------------------------------------|


   E     S  S  E    S S E   S S E   S S   H    H
|---------------------------------------|-----------*|
|---------------------------------------|-----------*|
|---------------------------------------|-----------*|
|---------------------------------------|-4---------*|
|---------------------------------------|-2---------*|
|--2-----2--2--2----2-2-2---2-2-2---2-2-|-----------*|
|
|  S  S  S  S  S  S S S S S S S S S S S   H    H
|---------------------------------------|-----------*|
|-10-12-10----10------7-5-7-5-7-5---5---|-----------*|
|----------11----11-9-------------6---6-|-4---------*|
|---------------------------------------|-----------*|
|---------------------------------------|-----------*|
|---------------------------------------|-----------*|




--------------------------------------------------------------------------------


Duration Legend
---------------
W - whole; H - half; Q - quarter; E - 8th; S - 16th; T - 32nd; X - 64th; a - acciaccatura
+ - note tied to previous; . - note dotted; .. - note double dotted
Uncapitalized letters represent notes that are staccato (1/2 duration)
Irregular groupings are notated above the duration line
Duration letters will always appear directly above the note/fret number it represents the
duration for.  Duration letters with no fret number below them represent rests.  Multi-
bar rests are notated in the form Wxn, where n is the number of bars to rest for.  Low
melody durations appear below the staff

Tablature Legend
----------------
 h   - hammer-on
 p   - pull-off
 b   - bend
 pb  - pre-bend
 r   - bend release (if no number after the r, then release immediately)
 /\  - slide into or out of (from/to "nowhere")
 s   - legato slide
 S   - shift slide
 - natural harmonic
[n]  - artificial harmonic
n(n) - tapped harmonic
 ~   - vibrato
 tr  - trill
 T   - tap
 TP  - trem. picking
 PM  - palm muting
\n/  - tremolo bar dip; n = amount to dip
 \n  - tremolo bar down
 n/  - tremolo bar up
/n\  - tremolo bar inverted dip
 =   - hold bend; also acts as connecting device for hammers/pulls
 <> - volume swell (louder/softer)
 x   - on rhythm slash represents muted slash
 o   - on rhythm slash represents single note slash

Misc Legend
-----------
 |  - bar
||  - double bar
||o - repeat start
o|| - repeat end
*|  - double bar (ending)
 :  - bar (freetime)
 $  - Segno
 &  - Coda
Tempo markers -  = BPM(8/16=s8/s16), where s8 = swing 8ths, s16 = swing 16ths

Tap to rate this tab
# A B C D E F G H I J K L M N O P Q R S T U V W X Y Z