Song name
# A B C D E F G H I J K L M N O P Q R S T U V W X Y Z

Thousand Foot Krutch - War Of Change tab

I'm not guaranteeing this is 100% correct, expecially the part before the chorus. Its 
just very hard to hear the notes and it sorta sounds like they may be harmonics? Not sure 
but I think its a decent start.

You can check out my youtube covers, hopefully I'll be able to upload a cover of this song soon!
http://www.youtube.com/user/McKeeC91

Enjoy and feel free to message me any corrections you have, I'm not perfect.


Drop C

Intro:
e|--------------------------------------------------------------------|
B|--15--15--15--15--13--13--13--13--15--15--15--15--13--13--13--16----|
G|----12--12--12--12--12--12--12--12--12--12--12--12--12--12--12--12--|
D|--------------------------------------------------------------------|
A|--------------------------------------------------------------------|
D|--------------------------------------------------------------------|

Pre-Chorus:
e|--------------------------------------------------------------------------------------|
B|--15--11--13-------------15--11--13---------------------------------------------------|
G|----12--12--12-7-10-12-----12--12--12-7-10-12-----------------------------------------|
D|--------------------------------------------------------------------------------------|
A|--------------------------------------------------------------------------------------|
D|--------------------------------------------------------------------------------------|

Chorus:
e|--------------------------------------------------------------------------------------|
B|--------------------------------------------------------------------------------------|
G|--------------------------------------------------------------------------------------|
D|--55555555-33333333-5555555-33333335--------------------------------------------------|
A|--55555555-33333333-3333333-11111135--------------------------------------------------|
D|--55555555-33333333---------------35--------------------------------------------------|

Bridge:
e|--------------------------------------------------------------------------------------|
B|--------------------------------------------------------------------------------------|
G|--------------------------------------------------------------------------------------|
D|--1-3-321-xx--1-3-321-xx--------------------------------------------------------------|
A|--1-1-321-xx--1-1-321-xx--------------------------------------------------------------|
D|--1---321-xx--1---321-xx--------------------------------------------------------------|

Outro:
e|--------------------------------------------------------------------------------------|
B|----15-16-15----15-16-15----15-16-15-17-15-16-15--------------------------------------|
G|--12---------12----------12-----------------------------------------------------------|
D|--------------------------------------------------------------------------------------|
A|--------------------------------------------------------------------------------------|
D|--------------------------------------------------------------------------------------|
Tap to rate this tab
 
# A B C D E F G H I J K L M N O P Q R S T U V W X Y Z