Song name
# A B C D E F G H I J K L M N O P Q R S T U V W X Y Z

Three Days Grace - Good Life tab

Good Life - Three Days Grace
Life Starts Now

Drop D:
D A D G B E


Intro: (Distorted bass)

g-------------------------------------------------|
d-------------------------------------------------|
a-------------------------------------------------|
d-0---0-7h8-0-5h6-0-1~~--0---0-7h8-0-5h6-0-1~~----|

g-------------------------------------------------|
d-------------------------------------------------|
a-------------------------------------------------|
d-0---0-7h8-0-5h6-0-1~~--0---0-6p5-06p5-0-3-pause-|

Riff (x2)

e----------------------------------------------|
b----------------------------------------------|
g----------------------------------------------|
d----------------------------------------------|
a-0---0-7h8-0-5h6-0-1~~--0---0-7h8-0-5h6-0-1~~-|
d-0---0-7h8-0-5h6-0-1~~--0---0-7h8-0-5h6-0-1~~-|

e--------------------------------------------|
b--------------------------------------------|
g--------------------------------------------|
d--------------------------------------------|
a-0---0-7h8-0-5h6-0-1~~--0---0-6p5-06p5-0-3--|
d-0---0-7h8-0-5h6-0-1~~--0---0-6p5-06p5-0-3--|

Verse pm

e----------------------------------------------|
b----------------------------------------------|
g----------------------------------------------|
d----------------------------------------------|
a-------------------1----------------------1---|
d-0---0-7h8-0-5h6-0-1~~--0---0-7h8-0-5h6-0-1~~-|

e--------------------------------------------|
b--------------------------------------------|
g--------------------------------------------|
d--------------------------------------------|
a-------------------1------------------------|
d-0---0-7h8-0-5h6-0-1~~--0---0-6p5-06p5-0-3--|

e----------------------------------------------|
b----------------------------------------------|
g----------------------------------------------|
d----------------------------------------------|
a-------------------1----------------------1---|
d-0---0-7h8-0-5h6-0-1~~--0---0-7h8-0-5h6-0-1~~-|

e--------------------------------|
b--------------------------------|
g--------------------------------|
d--------------------------------|
a-8---8---8---8---7--------------|
d-8---8---8---8---7--------------|

Chorus 1

D5        F5  G5        Bb5   D5       F5  G5       C5
e---------------------------------------------------------|
b---------------------------------------------------------|
g---------------------------------------------------------|
d---------------------------------------------------------|
a-0--0--0--3--5-5--5-5--8--8--0--0--0--3-3-5--5--5--10-10-|
d-0--0--0--3--5-5--5-5--8--8--0--0--0--3-3-5--5--5--10-10-|

1st.

Bb5          A/F    A5
e-------------------------|
b-------------------------|
g10-10-10-10-10-10--9--9--|
d-8--8--8--8--7--7--7--7--|
a-8--8--8--8--7--7--7--7--|
d-8--8--8--8--7--7--7--7--|

2nd.
Bb5
e-----------------------------------|
b-----------------------------------|
g10-10-10-10------------------------|
d-8--8--8--8------------------------|
a-8--8--8--8------------------------|
d-8--8--8--8--6p5-0-6p5-0-6p5-0-3ph-|

Verse 2 same

Chorus 2 (x2)

D5        F5  G5        Bb5   D5       F5  G5       C5
e---------------------------------------------------------|
b---------------------------------------------------------|
g---------------------------------------------------------|
d---------------------------------------------------------|
a-0--0--0--3--5-5--5-5--8--8--0--0--0--3-3-5--5--5--10-10-|
d-0--0--0--3--5-5--5-5--8--8--0--0--0--3-3-5--5--5--10-10-|

Bb5          A/F    A5
e-------------------------|
b-------------------------|
g10-10-10-10-10-10--9--9--|
d-8--8--8--8--7--7--7--7--|
a-8--8--8--8--7--7--7--7--|
d-8--8--8--8--7--7--7--7--|

Bridge: (x2)

e---------------------------------------------------------|
b---------------------------------------------------------|
g---------------------------------------------------------|
d---------------------------------5-5-5-5--3-3------------|
a---------------------------------3-3-3-3--1-1------------|
d-0--7--3--2-3--0--7--3-2-0--2-3---------------3-2-0--2-3-|

then, let last 7 ring

e---------------------------------------------------------|
b---------------------------------------------------------|
g---------------------------------------------------------|
d---------------------------------------------------------|
a---------------8--8--8--8--8--8--8--8--777-777-777-777-7-|
d-0--7--3--2-3--8--8--8--8--8--8--8--8--777-777-777-777-7-|

last bar

e------------------------------------|
b------------------------------------|
g------------------------------------|
d------------------------------------|
a-5---5-5--8---8-8--0-0---0---0-0-0--|
d-5---5-5--8---8-8--0-0---0---0-0-0--|

e-------------------------------------|
b-------------------------------------|
g-------------------------------------|
d-------------------------------------|
a-8-8--8-8--8-8--8-8--777-777-7-------|the-goodlife
d-8-8--8-8--8-8--8-8--777-777-7-------|

Chorus 3 (same as chorus 2) then

D5        F5  G5        Bb5   D5       F5  G5       C5
e---------------------------------------------------------|
b---------------------------------------------------------|
g---------------------------------------------------------|
d---------------------------------------------------------|
a-0--0--0--3--5-5--5-5--8--8--0--0--0--3-3-5--5--5--10-10-|
d-0--0--0--3--5-5--5-5--8--8--0--0--0--3-3-5--5--5--10-10-|

Bb5          A/F    A5
e-------------------------|
b-------------------------|
g10-10-10-10-10-----------|
d-8--8--8--8--7-----------|
a-8--8--8--8--7-----------|
d-8--8--8--8--7-----------|

Riff


trevor jones
timmy91199@yahoo.ca
Tap to rate this tab
 
# A B C D E F G H I J K L M N O P Q R S T U V W X Y Z