Song name
# A B C D E F G H I J K L M N O P Q R S T U V W X Y Z

Three Days Grace - Time Of Dying tab

Artist : Three Days Grace
Song   : Time Of Dying
Album  : One-X
Tuning : Drop C

Tabbed by jaames

Intro (x2)
D|----------------------------------------|
A|----------------------------------------|
F|----------------------------------------|
C|----------------------------------------|
G|----------------------------------------|
C|-7--0-0--3--0-3-5-0--7--0-0--3-5-3-0-3--|


D|----------------------------------------|(x2)
A|----------------------------------------|
F|----------------------------------------|
C|-7--0-0--3--0-3-5-0--7--0-0--3-5-3-0-3--|
G|-7--0-0--3--0-3-5-0--7--0-0--3-5-3-0-3--|
C|-7--0-0--3--0-3-5-0--7--0-0--3-5-3-0-3--|


Verse (x1) They only play this in the 1st verse
D|-5-----3-------5-----3---------5-----3--------------5-------|---------|
A|----3----5--6-----3-----5---6-----3-----5--6--5--6-----5--6-|---------|
F|------------------------------------------------------------|---------|
C|------------------------------------------------------------|-8---10--|
G|------------------------------------------------------------|-8---10--|
C|------------------------------------------------------------|-8---10--|


D|---------------------------------------------------|(x1)
A|---------------------------------------------------|
F|---------------------------------------------------|
C|-7-0---0-0-0---7-0---0-0-0---7-0---0-0-0---8---10--|
G|-7-0---0-0-0---7-0---0-0-0---7-0---0-0-0---8---10--|
C|-7-0---0-0-0---7-0---0-0-0---7-0---0-0-0---8---10--|


Pre-chorus (x1)
D|------------------------------------------------------------|
A|----3----3-----3----3-----6--6--6-----3----3-----3----3--8--|
F|-0----0-----0----0-----3-----3--3--0----0-----0----0-----5--|
C|------------------------------------------------------------|
G|------------------------------------------------------------|
C|------------------------------------------------------------|

Chorus (x1)                                                 Gtr.2 plays this 1/2 way through
D|----------------------------------------------------------------|-22------24---20-|
A|----------------------------------------------------------------|-----22----------|
F|----------------------------------------------------------------|-----------------|
C|-0---8---3---5---0---8---3---10---10---0---3---10---0---8---10--|-----------------|
G|-0---8---3---5---0---8---3---10----8---0---3---10---0---8---10--|-----------------|
C|-0---8---3---5---0---8---3---10----8---0---3---10---0---8---10--|-----------------|

Repeat Verse, Pre-chorus and Chorus.

Bridge/Intro (x1)
D|----------------------------------------|-----------------------------------------|
A|----------------------------------------|---------------------14b-----------------|
F|----------------------------------------|-----------------------------------------|
C|----------------------------------------|-----------------------------------------|
G|----------------------------------------|-----------------------------------------|
C|-7--0-0--3--0-3-5-0--7--0-0--3-5-3-0-3--|-7--0-0--3--0-3-5-0------0-0--3-5-3-0-3--|


D|----------------------------------------|(x2)
A|----------------------------------------|
F|----------------------------------------|
C|-7--0-0--3--0-3-5-0--7--0-0--3-5-3-0-3--|
G|-7--0-0--3--0-3-5-0--7--0-0--3-5-3-0-3--|
C|-7--0-0--3--0-3-5-0--7--0-0--3-5-3-0-3--|

Repeat Chorus, then end with the Verse.
Tap to rate this tab
 
# A B C D E F G H I J K L M N O P Q R S T U V W X Y Z