Song name
# A B C D E F G H I J K L M N O P Q R S T U V W X Y Z

Three Days Grace - Over And Over tab

Help us improve GuitareTab! Take a short survey!
-----------------------------------------------------------------
Over & Over - Three Days Grace
-----------------------------------------------------------------
Tabbed by: RS-GUITARIST
Tuning: Drop D

*might want to practice the intro a bit,slowly,your fingers might clunch up.

Intro
Clean                                                           x6
e|---------------------------------------------------------------|
B|---------------------------------------------------------------|
G|-----2p0-------2p0------2p0-----2p0~---------------------------|
D|---3-----3----3---3----3---3---3-------------------------------|
A|--3-------3--3-----3--3-----3-0--------------------------------|
D|-3----------3--------0-------0---------------------------------|

Verse
Clean                                                           x6
e|---------------------------------------------------------------|
B|---------------------------------------------------------------|
G|-----2p0-------2p0------2p0-----2p0~---------------------------|
D|---3-----3----3---3----3---3---3-------------------------------|
A|--3-------3--3-----3--3-----3-0--------------------------------|
D|-3----------3--------0-------0---------------------------------|

*(You can play this if you want)
Guitar 2: Verse 
e|---------------------------------------------------------------|*
B|---------------------------------------------------------------|
G|---------------------------------------------------------------|
D|-9\\\5---------------------------------------------------------|
A|-9\\\5---------------------------------------------------------|
D|-9\\\5---------------------------------------------------------|*

Pre-chorus
Electric
e|---------------------------------------------------------------|
B|---------------------------------------------------------------|
G|--------------------------------5------------------------------|
D|-88888888-00000000-33333333-----5-------5----------------------|
A|-88888888-00000000-33333333-----3-------5----------------------|
D|-88888888-00000000-33333333-------------5----------------------|

Chorus: 
   Over & Over, Over & Over...I Fall ...For You
e|---------------------------------------------------------------|
B|---------------------------------------------------------------|
G|-----------------------------55-5------------------------------|
D|-77777777------33333333------55-5------55----------------------|
A|-77777777------33333333------33-3------55----------------------|
D|-77777777------33333333----------------55----------------------|

   Over & Over, Over & Over...I Try ...Not To
e|---------------------------------------------------------------|
B|---------------------------------------------------------------|
G|---------------------------------------------------------------|
D|-77777777------33333333------000-------5\2---------------------|
A|-77777777------33333333------000-------5\2---------------------|
D|-77777777------33333333------000-------5\2---------------------|

Guitar 2: Can play the pre and the chorus on acoustic

Verse
Clean                                                           x6
e|---------------------------------------------------------------|
B|---------------------------------------------------------------|
G|-----2p0-------2p0------2p0-----2p0~---------------------------|
D|---3-----3----3---3----3---3---3-------------------------------|
A|--3-------3--3-----3--3-----3-0--------------------------------|
D|-3----------3--------0-------0---------------------------------|

Pre-chorus:
e|---------------------------------------------------------------|
B|---------------------------------------------------------------|
G|--------------------------------5------------------------------|
D|-88888888-00000000-33333333-----5-------5----------------------|
A|-88888888-00000000-33333333-----3-------5----------------------|
D|-88888888-00000000-33333333-------------5----------------------|

Chorus: 
   Over & Over, Over & Over...I Fall ...For You
e|---------------------------------------------------------------|
B|---------------------------------------------------------------|
G|-----------------------------55-5------------------------------|
D|-77777777------33333333------55-5------55----------------------|
A|-77777777------33333333------33-3------55----------------------|
D|-77777777------33333333----------------55----------------------|

   Over & Over, Over & Over...I Try ...Not To
e|---------------------------------------------------------------|
B|---------------------------------------------------------------|
G|---------------------------------------------------------------|
D|-77777777------33333333------000------5\2----------------------|
A|-77777777------33333333------000------5\2----------------------|
D|-77777777------33333333------000------5\2----------------------|

Bridge
e|---------------------------------------------------------------|
B|---------------------------------------------------------------|
G|-11-11-11-11-11-11-11-11-11-11-11-11-11-11-11-11-(x2)-9~-------|
D|-11-11-11-11-11-11-11-11-11-11-11-11-11-11-11-11------9~-------|
A|-9--9--9--9--9--9--9--9--9--9--9--9--9--9--9--9-------7~-------|
D|-9--9--9--9--9--9--9--9--0--0--0--0--0--0--0--0-------0~-------|

e|---------------------------------------------------------------|
B|---------------------------------------------------------------|
G|-11-11-11-11-11-11-11-11-11-11-11-11-11-11-11-11-(x2)-7~-------|
D|-11-11-11-11-11-11-11-11-11-11-11-11-11-11-11-11------7~-------|
A|-9--9--9--9--9--9--9--9--9--9--9--9--9--9--9--9-------5~-------|
D|-9--9--9--9--9--9--9--9--0--0--0--0--0--0--0--0-------0~-------|

Chorus: 
   Over & Over, Over & Over...I Fall ...For You
e|---------------------------------------------------------------|
B|---------------------------------------------------------------|
G|-----------------------------77-7------------------------------|
D|-99999999------55555555------77-7------77----------------------|
A|-99999999------55555555------55-5------77----------------------|
D|-99999999------55555555----------------77----------------------|

   Over & Over, Over & Over...I Try ...Not To
e|---------------------------------------------------------------|
B|---------------------------------------------------------------|
G|---------------------------------------------------------------|
D|-99999999------55555555------000-------7\4---------------------|
A|-99999999------55555555------000-------7\4---------------------|
D|-99999999------55555555------000-------7\4---------------------|
   
e|---------------------------------------------------------------|
B|---------------------------------------------------------------|
G|-----------------------------77-7------------------------------|
D|-99999999------55555555------77-7------77----------------------|
A|-99999999------55555555------55-5------77----------------------|
D|-99999999------55555555----------------77----------------------|

e|---------------------------------------------------------------||
B|---------------------------------------------------------------||
G|---------------------------------------------------------------||
D|-99999999------55555555------000-------7\4/9~------------------||
A|-99999999------55555555------000-------7\4/9~------------------||
D|-99999999------55555555------000-------7\4/9~------------------||


| /  slide up
| \  slide down
| h  hammer-on
| p  pull-off
| ~  vibrato
| +  harmonic
| x  Mute note
Related for Over And Over tab