Song name
# A B C D E F G H I J K L M N O P Q R S T U V W X Y Z

Three Days Grace - Lost In You tab

-----------------------------------------------------------------------------
Lost In You – Three Days Grace
-----------------------------------------------------------------------------

Tabbed by: Daniel Slindee		
Email:slind020@umn.edu

Tuning:Drop D, DAdGBe

INTRO
e|--------------------------------------------------------------------------|
B|--------------------------------------------------------------------------|
G|----9-11-4-6-6-6~-6-------------------------------------------------------|
D|----0-0-------------X2----------------------------------------------------|
A|----0-0--0-0-0-0--0-------------------------------------------------------|
D|----0-0-------------------------------------------------------------------|

Verse 
e|--------------------------------------------------------------------------|
B|--------------------------------------------------------------------------|
G|----9-11-4-6-6-6~-6----------9-11-6666---9-11-4-6-6-6~-6--9-11-6666-------|
D|----0-0-------------X2-------0-0--4444---0-0--------------0-0--4444-------|
A|----0-0--0-0-0-0--0----------0-0--4444---0-0--0-0-0-0--0--0-0--4444-------|
D|----0-0----------------------0-0--4444---0-0--------------0-0--4444-------|


Pre Chorus
e|--------------------------------------------------------------------------|
B|------------3333----------------------------------------------------------|
G|--44444-666-2222----4444--------------------------------------------------|
D|--22222-444-0000----2222-7777-0000-22222222-------------------------------|
A|--22222-444-0000----2222-7777-0000-22222222-------------------------------|
D|--22222-444-0000----2222-7777-0000-22222222-------------------------------|

Chorus
e|--------------------------------------------------------------------------|
B|--------------------------------------------------------------------------|
G|--2222-6666-9999-119-1111---2222-6666-2222-4444---------------------------|
D|--0000-4444-7777-0-0-0-0----0000-4444-0000-2222--cont. next line----------|
A|--0000-4444-7777-0-0-0-0----0000-4444-0000-2222---------------------------|
D|--0000-4444-7777-0-0-0-0----0000-4444-0000-2222---------------------------|


e|--------------------------------------------------------------------------|
B|--------------------------------------------------------------------------|
G|--2222-6666-9999-119-1111---2222-9999-------------------------------------|
D|--0000-4444-7777-0-0-0-0----0000-7777-4444-2222---------------------------|
A|--0000-4444-7777-0-0-0-0----0000-7777-4444-2222---------------------------|
D|--0000-4444-7777-0-0-0-0----0000-7777-4444-2222---------------------------|

Gtr 2 fill.
e|---------9-----12-----7-9---|
B|-----7-----7------7---------|
G|---9---9-----9------9-------|
D|----------------------------|
A|----------------------------|
D|----------------------------|

Verse 2
Pre chorus
Chorus 2

Post chorus fill
e|-----------------------|
B|-----------------------|
G|--22222222-------------|
D|--00000000-22222222----|
A|--00000000-22222222----|
D|--00000000-22222222----|

Bridge
e|--------------------------------------------------------------------------|
B|--------------------------------------------------------------------------|
G|--6666-4444-6666-2222-6666-4444-2222-2222-4~~~----------------------------|
D|--4444-2222-4444-0000-4444-2222-0000-0000-2~~~----------------------------|
A|--4444-2222-4444-0000-4444-2222-0000-0000-2~~~----------------------------|
D|--4444-2222-4444-0000-4444-2222-0000-0000-2~~~----------------------------|

Breakdown
e|--------------------------------------------------------------------------|
B|--------------------------------------------------------------------------|
G|----9-11-4-6~~~--------------9-11-6~~~------------------------------------|
D|----0-0---------X2-----------0-0--4~~~--222222222-------------------------|
A|----0-0--0-0-----------------0-0--4~~~--222222222-------------------------|
D|----0-0----------------------0-0--4~~~--222222222-------------------------|

Chorus
e|--------------------------------------------------------------------------|
B|--------------------------------------------------------------------------|
G|--2222-6666-9999-119-1111---2222-6666-2222-4444---------------------------|
D|--0000-4444-7777-0-0-0-0----0000-4444-0000-2222--cont. next line----------|
A|--0000-4444-7777-0-0-0-0----0000-4444-0000-2222---------------------------|
D|--0000-4444-7777-0-0-0-0----0000-4444-0000-2222---------------------------|


e|-----------------------------------------------------2~~~-----------------|
B|-----------------------------------------------------3~~~-----------------|
G|--2222-6666-9999-119-1111---2222-9999------4~~~------2~~~-----------------|
D|--0000-4444-7777-0-0-0-0----0000-7777-4444-2~~~--X2--0~~~-----------------|
A|--0000-4444-7777-0-0-0-0----0000-7777-4444-2~~~------0~~~-----------------|
D|--0000-4444-7777-0-0-0-0----0000-7777-4444-2~~~------0~~~-----------------|

Listen to song for strum patterns. You’ll get it.
Great song, could use a good tab.

| /  slide up
| \  slide down
| h  hammer-on
| p  pull-off
| ~  vibrato
| +  harmonic
| x  Mute note
=============================================================================
Tap to rate this tab
# A B C D E F G H I J K L M N O P Q R S T U V W X Y Z