Guitaretab - guitar tabs
Song name
# A B C D E F G H I J K L M N O P Q R S T U V W X Y Z

Three Days Grace - Are You Ready tab

Are you ready? by Three Days Grace
from the movie raise your voice...

i have no clue what the movies about, 
but was told about this song and it is awesome!

tuning: Dadgbe

Intro
|---------------------------------|
|---------------------------------|
|-------44446667777---------------|
|-0~----------------5-2-----------|
|-0~----22224445555-5-2-----------|
|-0~----------------5-2-----------|

verse w/rotary effect (guitar 1)
|----------------7777-------------|
|-666677776666777----777766667777-|
|---------------------------------|
|---------------------------------|
|---------------------------------|
|---------------------------------|

verse w/light distortion (guitar 2)
|---------------------------------|
|---------------------------------|
|-4~------------------------------|
|-x~------------------------------|
|-2~------------------------------|
|---------------------------------|
[ Tab from: http://www.guitaretab.com/t/three-days-grace/136202.html ]
pre-chorus
|---------------------------------|
|-10---5----10---7777-------------|
|-9----4----9----6666-------------|
|-7----2----7----4444-------------|
|-7----2----7----4444-------------|
|-7----2----7----4444-------------|
               pm....

chorus
|---------------------------------|
|---------------------------------|
|---------------------------------|
|-00-4-00-4-44---55---------------|
|-00---00---44-4-55-0-------------|
|-00---00---44---55---------------|

interlude
|---------------------------------|
|---------------------------------|
|-4--5--2-------------------------|
|-x--x--x--44445555---------------|
|-2--3--0--44445555---------------|
|----------44445555---------------|
         pm........
chorus 2
|---------------------------------|
|---------------------------------|
|---------------------------------|
|-00---00---44---55---------------|
|-00---00---44-4-55-0-------------|
|-00---00---44---55---------------|

order:
intro x2
verse x4
prechorus x1
chorus x4
verse x4
Related for Are You Ready tab
Are You Ready chords by Three Days Grace