Song name
# A B C D E F G H I J K L M N O P Q R S T U V W X Y Z

Three Days Grace - Lost In You tab

Artist: Three Days Grace
Song  : Lost in You
Album : Life Starts Now

I based this tab on a video of TDG performing this acoustic.
There is 2 guitar parts so if you want to play solo you might have
to mash together the 2 parts in different spots to make it sound perfect.
This appears to be how they play it, and if you want to see the video
here you go: http://www.youtube.com/watch?v=AlWhMHsuXP8&feature=related
Please rate/ comment!

Guitar 1 (Adam)  : Drop D tuning, DADGBE
Guitar 2 (Barry) : Drop D tuning, DADGBE

Intro:
(Guitar 1&2)
E|---------------------|
B|---------------------|
G|--9--11--------------|
D|--0--0--9--11p9h11---|  x3
A|--0--0--0--0---------|
D|--0--0--0--0---------|

Verse 1:
"I always knew that you'd come back to get me..."
(Guitar 1&2)
E|------------------------------------------------------------|
B|------------------------------------------------------------|
G|--9--11------------9--11-6-----9--11------------9--11-6-----|
D|--0--0--9--11p9h11-0--0--4-----0--0--9--11p9h11-0--0--4-----|  x1
A|--0--0--0--0-------0--0--4-----0--0--0--0-------0--0--4-----|
D|--0--0--0--0-------0--0--4-----0--0--0--0-------0--0--4-----|

Pre-chorus:
"You tried to lie and say I was everything..."
(Guitar 1&2)
E|----------------------------------|
B|----------------------------------|
G|--4----6--2----4----9--2----4-----|
D|--2----4--0----2----7--0----2-----|  x1
A|--2----4--0----2----7--0----2-----|
D|--2----4--0----2----7--0----2-----|

Chorus:
"Somehow I found a way to get lost in you..."
(Guitar 1)
E|--------------------------------------------------|
B|--------------------------------------------------|
G|--2--6--9--2--2--6--2--4--2--6--9--2--2--9--6--4--|
D|--0--4--7--0--0--4--0--2--0--4--7--0--0--7--4--2--|  x1
A|--0--4--7--0--0--4--0--2--0--4--7--0--0--7--4--2--|
D|--0--4--7--0--0--4--0--2--0--4--7--0--0--7--4--2--|

(Guitar 2)
E|----------------------------------------------------------------|
B|----------------------------------------------------------------|
G|--2--6--9--11p9-11p9-6--2--4--2--6--9--11p9-9--11---------6--4--|
D|--0--4--7--0----0----4--0--2--0--4--7--0----0--0---9--11--4--2--|  x1
A|--0--4--7--0----0----4--0--2--0--4--7--0----0--0---0--0---4--2--|
D|--0--4--7--0----0----4--0--2--0--4--7--0----0--0---0--0---4--2--|

Fill:
(Guitar 1)
E|---------------------|
B|---------------------|
G|--9--11--------------|
D|--0--0--9--11p9h11---|  x1
A|--0--0--0--0---------|
D|--0--0--0--0---------|

(Guitar 2)
E|-----------9--------12-----------9--|
B|-----10-------10--------10----12----|
G|--11----11-------11--------11-------|
D|------------------------------------|  x1
A|------------------------------------|
D|------------------------------------|

Verse 2:
"You always thought that I left myself open..."
(Guitar 1&2)
E|----------------------------------------------------|
B|----------------------------------------------------|
G|--9--11-6----9--11------------9--11-6----9--11-6----|
D|--0--0--4----0--0--9--11p9h11-0--0--4----0--0--4----|  x1
A|--0--0--4----0--0--0--0-------0--0--4----0--0--4----|
D|--0--0--4----0--0--0--0-------0--0--4----0--0--4----|

Pre-chorus:
"You tried to lie and say I was everything..."
(Guitar 1&2)
E|----------------------------------|
B|----------------------------------|
G|--4----6--2----4----9--2----4-----|
D|--2----4--0----2----7--0----2-----|  x1
A|--2----4--0----2----7--0----2-----|
D|--2----4--0----2----7--0----2-----|

Chorus:
"Somehow I found a way to get lost in you..."
(Guitar 1)
E|------------------------------------------------------------|
B|------------------------------------------------------------|
G|--2--6--9--2--2--6--2--4--2--6--9--2--2--9--6--4--2----4----|
D|--0--4--7--0--0--4--0--2--0--4--7--0--0--7--4--2--0----2----|  x1
A|--0--4--7--0--0--4--0--2--0--4--7--0--0--7--4--2--0----2----|
D|--0--4--7--0--0--4--0--2--0--4--7--0--0--7--4--2--0----2----|

(Guitar 2)
E|--------------------------------------------------------------------------|
B|--------------------------------------------------------------------------|
G|--2--6--9--11p9-11p9-6--2--4--2--6--9--11p9-9--11---------6--4--2----4----|
D|--0--4--7--0----0----4--0--2--0--4--7--0----0--0---9--11--4--2--0----2----|x1
A|--0--4--7--0----0----4--0--2--0--4--7--0----0--0---0--0---4--2--0----2----|
D|--0--4--7--0----0----4--0--2--0--4--7--0----0--0---0--0---4--2--0----2----|

Bridge/ Breakdown:
"Hey now fear the rise and the fall..."
(Guitar 1)
E|-------------------------------------------------|
B|-------------------------------------------------|
G|----6----4----6----2----6----4----2----2----4~---|
D|----4----2----4----0----4----2----0----0----2~---|  x1
A|----4----2----4----0----4----2----0----0----2~---|
D|----4----2----4----0----4----2----0----0----2~---|

(Guitar 2)
E|-------------------------------------------------|
B|-------------------------------------------------|
G|----6----4----6----2----6----4----6----2----4~---|
D|----4----2----4----0----4----2----4----0----2~---|  x1
A|----4----2----4----0----4----2----4----0----2~---|
D|----4----2----4----0----4----2----4----0----2~---|

Fill:
(Guitar 1&2)
E|-----------------------------------------------|
B|-----------------------------------------------|
G|--9--11----------9--11---------9--11-6----4----|
D|--0--0--9--11----0--0--9--11---0--0--4----2----|  x1
A|--0--0--0--0-----0--0--0--0----0--0--4----2----|
D|--0--0--0--0-----0--0--0--0----0--0--4----2----|

Chorus:
"Somehow I found a way to get lost in you..."
(Guitar 1)
E|------------------------------------------------------------------------------|
B|---------------------------------------------------------------------------3~-|
G|--2--6--9--2--2--6--2--4--2--6--9--2--2--9--6--4--2--9--6--4--2--9--6--4---2~-|
D|--0--4--7--0--0--4--0--2--0--4--7--0--0--7--4--2--0--7--4--2--0--7--4--2---0~-|x1
A|--0--4--7--0--0--4--0--2--0--4--7--0--0--7--4--2--0--7--4--2--0--7--4--2---0~-|
D|--0--4--7--0--0--4--0--2--0--4--7--0--0--7--4--2--0--7--4--2--0--7--4--2---0~-|

(Guitar 2)
E|----------------------------------------------------------------|
B|----------------------------------------------------------------|
G|--2--6--9--11p9-11p9-6--2--4--2--6--9--11p9-9--11---------6--4--|
D|--0--4--7--0----0----4--0--2--0--4--7--0----0--0---9--11--4--2--|  cont'd
A|--0--4--7--0----0----4--0--2--0--4--7--0----0--0---0--0---4--2--|
D|--0--4--7--0----0----4--0--2--0--4--7--0----0--0---0--0---4--2--|

E|--------9------12--------9--------------9------12--------9---------------|
B|----10-----10------10--12-----------10-----10------10--12-----------3~---|
G|--11--11-----11------11-----6--4--11--11-----11------11-----6--4----2~---|
D|----------------------------4--2----------------------------4--2----0~---|x1
A|----------------------------4--2----------------------------4--2----0~---|
D|----------------------------4--2----------------------------4--2----0~---|

Enjoy! Please rate/ comment!
Tap to rate this tab
 
# A B C D E F G H I J K L M N O P Q R S T U V W X Y Z