Song name
# A B C D E F G H I J K L M N O P Q R S T U V W X Y Z

Three Days Grace - The Good Life tab

Three Days Grace
The Good Life
Tabbed by U B the band
Tuning D A D G B e

Legend
h-hammer on                  p-pull off              pm-palm mute
\-slide down                 v-vibrato               PH-Pinch Harmonic

Intro: Guitar 1 (Distorted)
e|--------------------------------------------------------------------|
B|--------------------------------------------------------------------|
G|--------------------------------------------------------------------|
D|--0---0---7h8--0--5h6---0---1------0---0---7h8--0--5h6---0---1------|
A|--------------------------------------------------------------------|
D|--------------------------------------------------------------------|

e|--------------------------------------------------------------------|
B|--------------------------------------------------------------------|
G|--------------------------------------------------------------------|
D|--0---0---7h8--0--5h6---0---1------0---0---6p5--0--6p5---0---3------|
A|--------------------------------------------------------------------|
D|--------------------------------------------------------------------|

Intro: Guitar 1 (Distorted) PLAY 2 TIMES
e|--------------------------------------------------------------------|
B|--------------------------------------------------------------------|
G|--------------------------------------------------------------------|
D|--------------------------------------------------------------------|
A|--0---0---7h8--0--5h6---0---1------0---0---7h8--0--5h6---0---1------|
D|--0---0---7h8--0--5h6---0---1------0---0---7h8--0--5h6---0---1------|

Intro: Guitar 1 (Distorted
e|--------------------------------------------------------------------|
B|--------------------------------------------------------------------|
G|--------------------------------------------------------------------|
D|--------------------------------------------------------------------|
A|--0---0---7h8--0--5h6---0---1------0---0---6p5--0--6p5---0----------|
D|--0---0---7h8--0--5h6---0---1------0---0---6p5--0--6p5---0---3v-----|

Verse 1: Guitar 1 (Distorted)
e|--------------------------------------------------------------------|
B|--------------------------------------------------------------------|
G|--------------------------------------------------------------------|
D|--------------------------------------------------------------------|
A|--0---0---7h8--0--5h6---0---1------0---0---7h8--0--5h6---0---1------|
D|--0---0---7h8--0--5h6---0---1------0---0---7h8--0--5h6---0---1------|
    pm  pm  pmpm pm pmpm  pm         pm  pm  pmpm pm pmpm  pm

Verse 1: Guitar 1 (Distorted)
e|--------------------------------------------------------------------|
B|--------------------------------------------------------------------|
G|--------------------------------------------------------------------|
D|--------------------------------------------------------------------|
A|--0---0---7h8--0--5h6---0---1------0---0---6p5--0--6p5---0----------|
D|--0---0---7h8--0--5h6---0---1------0---0---6p5--0--6p5---0---3v-----|
    pm  pm  pmpm pm pmpm  pm         pm  pm  pmpm pm pmpm  pm

Verse 1: Guitar 1 (Distorted)
e|--------------------------------------------------------------------|
B|--------------------------------------------------------------------|
G|--------------------------------------------------------------------|
D|--------------------------------------------------------------------|
A|--0---0---7h8--0--5h6---0---1------0---0---7h8--0--5h6---0---1------|
D|--0---0---7h8--0--5h6---0---1------0---0---7h8--0--5h6---0---1------|
    pm  pm  pmpm pm pmpm  pm         pm  pm  pmpm pm pmpm  pm

Verse 1: Guitar 1 (Distorted)
e|--------------------------------------------------------------------|
B|--------------------------------------------------------------------|
G|--------------------------------------------------------------------|
D|--8------8------8------8------7-------------------------------------|
A|--8------8------8------8------7-------------------------------------|
D|--8------8------8------8------7-------------------------------------|

Chorus: Guitar 1 (Distorted)
e|--------------------------------------------------------------------|
B|--------------------------------------------------------------------|
G|------------------7--7--7--------------------------7--7--7----------|
D|--0--0--0---------5--5--5---8-8-8--0--0--0---------5--5--5--10-10---|
A|--0--0--0--0h3p0--5--5--5---8-8-8--0--0--0--0h3p0--5--5--5--10-10---|
D|--0--0--0--0h3p0--5--5--5---8-8-8--0--0--0--0h3p0--5--5--5--10-10---|

Chorus: Guitar 1 (Distorted)
e|--------------------------------------------------------------------|
B|--------------------------------------------------------------------|
G|--10-----10-----10-----10-----10-----10------9------9---------------|
D|--8------8------8------8------7------7-------7------7---------------|
A|--8------8------8------8------7------7-------7------7---------------|
D|--8------8------8------8------7------7-------7------7---------------|

Chorus: Guitar 1 (Distorted)
e|--------------------------------------------------------------------|
B|--------------------------------------------------------------------|
G|------------------7--7--7--------------------------7--7--7----------|
D|--0--0--0---------5--5--5---8-8-8--0--0--0---------5--5--5--10-10---|
A|--0--0--0--0h3p0--5--5--5---8-8-8--0--0--0--0h3p0--5--5--5--10-10---|
D|--0--0--0--0h3p0--5--5--5---8-8-8--0--0--0--0h3p0--5--5--5--10-10---|

Chorus: Guitar 1 (Distorted)
e|--------------------------------------------------------------------|
B|--------------------------------------------------------------------|
G|--10-----10-----10-----10-----10------------------------------------|
D|--8------8------8------8------7-------------------------------------|
A|--8------8------8------8------7-------------------------------------|
D|--8------8------8------8------7----6p5--0--6p5---0---3PH-v----------|

Post Chorus: Guitar 1 (Distorted)
e|--------------------------------------------------------------------|
B|--------------------------------------------------------------------|
G|--------------------------------------------------------------------|
D|--------------------------------------------------------------------|
A|--0---0---7h8--0--5h6---0---1------0---0---7h8--0--5h6---0---1------|
D|--0---0---7h8--0--5h6---0---1------0---0---7h8--0--5h6---0---1------|

Post Chorus: Guitar 1 (Distorted
e|--------------------------------------------------------------------|
B|--------------------------------------------------------------------|
G|--------------------------------------------------------------------|
D|--------------------------------------------------------------------|
A|--0---0---7h8--0--5h6---0---1------0---0---6p5--0--6p5---0----------|
D|--0---0---7h8--0--5h6---0---1------0---0---6p5--0--6p5---0---3v-----|
	
Verse 2: Guitar 1 (Distorted)
e|--------------------------------------------------------------------|
B|--------------------------------------------------------------------|
G|--------------------------------------------------------------------|
D|--------------------------------------------------------------------|
A|--0---0---7h8--0--5h6---0---1------0---0---7h8--0--5h6---0---1------|
D|--0---0---7h8--0--5h6---0---1------0---0---7h8--0--5h6---0---1------|
    pm  pm  pmpm pm pmpm  pm         pm  pm  pmpm pm pmpm  pm

Verse 2: Guitar 1 (Distorted)
e|--------------------------------------------------------------------|
B|--------------------------------------------------------------------|
G|--------------------------------------------------------------------|
D|--------------------------------------------------------------------|
A|--0---0---7h8--0--5h6---0---1------0---0---6p5--0--6p5---0----------|
D|--0---0---7h8--0--5h6---0---1------0---0---6p5--0--6p5---0---3v-----|
    pm  pm  pmpm pm pmpm  pm         pm  pm  pmpm pm pmpm  pm

Verse 2: Guitar 1 (Distorted)
e|--------------------------------------------------------------------|
B|--------------------------------------------------------------------|
G|--------------------------------------------------------------------|
D|--------------------------------------------------------------------|
A|--0---0---7h8--0--5h6---0---1------0---0---7h8--0--5h6---0---1------|
D|--0---0---7h8--0--5h6---0---1------0---0---7h8--0--5h6---0---1------|
    pm  pm  pmpm pm pmpm  pm         pm  pm  pmpm pm pmpm  pm

Verse 2: Guitar 1 (Distorted)
e|--------------------------------------------------------------------|
B|--------------------------------------------------------------------|
G|--------------------------------------------------------------------|
D|--8------8------8------8------7-------------------------------------|
A|--8------8------8------8------7-------------------------------------|
D|--8------8------8------8------7-------------------------------------|

Chorus: Guitar 1 (Distorted)
e|--------------------------------------------------------------------|
B|--------------------------------------------------------------------|
G|------------------7--7--7--------------------------7--7--7----------|
D|--0--0--0---------5--5--5---8-8-8--0--0--0---------5--5--5--10-10---|
A|--0--0--0--0h3p0--5--5--5---8-8-8--0--0--0--0h3p0--5--5--5--10-10---|
D|--0--0--0--0h3p0--5--5--5---8-8-8--0--0--0--0h3p0--5--5--5--10-10---|

Chorus: Guitar 1 (Distorted)
e|--------------------------------------------------------------------|
B|--------------------------------------------------------------------|
G|--10-----10-----10-----10-----10-----10------9------9---------------|
D|--8------8------8------8------7------7-------7------7---------------|
A|--8------8------8------8------7------7-------7------7---------------|
D|--8------8------8------8------7------7-------7------7---------------|

Chorus: Guitar 1 (Distorted)
e|--------------------------------------------------------------------|
B|--------------------------------------------------------------------|
G|------------------7--7--7--------------------------7--7--7----------|
D|--0--0--0---------5--5--5---8-8-8--0--0--0---------5--5--5--10-10---|
A|--0--0--0--0h3p0--5--5--5---8-8-8--0--0--0--0h3p0--5--5--5--10-10---|
D|--0--0--0--0h3p0--5--5--5---8-8-8--0--0--0--0h3p0--5--5--5--10-10---|

Chorus: Guitar 1 (Distorted)
e|--------------------------------------------------------------------|
B|--------------------------------------------------------------------|
G|--10-----10-----10-----10-----10-----10-----------------------------|
D|--8------8------8------8------7------7------------------------------|
A|--8------8------8------8------7------7------------------------------|
D|--8------8------8------8------7------7------------------------------|

Bridge: Guitar 1 (Distorted) PLAY 2 TIMES
e|--------------------------------------------------------------------|
B|--------------------------------------------------------------------|
G|--------------------------------------------------------------------|
D|-------------------------------------------5-5-5-5--3-3-------------|
A|-------------------------------------------3-3-3-3--1-1-------------|
D|--0---7---3---2--3---0---7---3--2--0--2--3--------------3-2-0--2--3-|

Bridge: Guitar 1 (Distorted) PLAY 1 TIME
e|--------------------------------------------------------------------|
B|--------------------------------------------------------------------|
G|-----------------------------------------------------------9--------|
D|---------------------8--8--8--8--8--8--8--8--777777-777777-7--------|
A|---------------------8--8--8--8--8--8--8--8--777777-777777-7--------|
D|--0---7---3---2--3---8--8--8--8--8--8--8--8--777777-777777-7--------|

Bridge: Guitar 1 (Distorted) PLAY 1 TIME
e|--------------------------------------------------------------------|
B|--------------------------------------------------------------------|
G|--------------------------------------------------------------------|
D|--------------------------------------------------------------------|
A|--5------5--5---8------8--8---0--0------0------0--0--0--------------|
D|--5------5--5---8------8--8---0--0------0------0--0--0--------------|

Bridge: Guitar 1 (Distorted) PLAY 1 TIME
e|--------------------------------------------------------------------|
B|--------------------------------------------------------------------|
G|---------------------------------------9----------------------------|
D|--8-----8-----8-----8-----7-7-7-7-7-7--7----------------------------|
A|--8-----8-----8-----8-----7-7-7-7-7-7--7----------------------------|
D|--8-----8-----8-----8-----7-7-7-7-7-7--7----------------------------|

Chorus: Guitar 1 (Distorted)
e|--------------------------------------------------------------------|
B|--------------------------------------------------------------------|
G|------------------7--7--7--------------------------7--7--7----------|
D|--0--0--0---------5--5--5---8-8-8--0--0--0---------5--5--5--10-10---|
A|--0--0--0--0h3p0--5--5--5---8-8-8--0--0--0--0h3p0--5--5--5--10-10---|
D|--0--0--0--0h3p0--5--5--5---8-8-8--0--0--0--0h3p0--5--5--5--10-10---|

Chorus: Guitar 1 (Distorted)
e|--------------------------------------------------------------------|
B|--------------------------------------------------------------------|
G|--10-----10-----10-----10-----10-----10------9------9---------------|
D|--8------8------8------8------7------7-------7------7---------------|
A|--8------8------8------8------7------7-------7------7---------------|
D|--8------8------8------8------7------7-------7------7---------------|

Chorus: Guitar 1 (Distorted)
e|--------------------------------------------------------------------|
B|--------------------------------------------------------------------|
G|------------------7--7--7--------------------------7--7--7----------|
D|--0--0--0---------5--5--5---8-8-8--0--0--0---------5--5--5--10-10---|
A|--0--0--0--0h3p0--5--5--5---8-8-8--0--0--0--0h3p0--5--5--5--10-10---|
D|--0--0--0--0h3p0--5--5--5---8-8-8--0--0--0--0h3p0--5--5--5--10-10---|

Chorus: Guitar 1 (Distorted)
e|--------------------------------------------------------------------|
B|--------------------------------------------------------------------|
G|--10-----10-----10-----10-----10------------------------------------|
D|--8------8------8------8------7-------------------------------------|
A|--8------8------8------8------7-------------------------------------|
D|--8------8------8------8------7-------------------------------------|

Outro: Guitar 1 (Distorted) PLAY 2 TIMES
e|--------------------------------------------------------------------|
B|--------------------------------------------------------------------|
G|--------------------------------------------------------------------|
D|--------------------------------------------------------------------|
A|--0---0---7h8--0--5h6---0---1------0---0---7h8--0--5h6---0---1------|
D|--0---0---7h8--0--5h6---0---1------0---0---7h8--0--5h6---0---1------|

Outro: Guitar 1 (Distorted
e|--------------------------------------------------------------------|
B|--------------------------------------------------------------------|
G|--------------------------------------------------------------------|
D|--------------------------------------------------------------------|
A|--0---0---7h8--0--5h6---0---1------0---0---6p5--0--6p5---0----------|
D|--0---0---7h8--0--5h6---0---1------0---0---6p5--0--6p5---0---3PH-v--|

Outro: Guitar 1 (Distorted)
e|--------------------------------------------------------------------|
B|--------------------------------------------------------------------|
G|--7----7-\----------------------------------------------------------|
D|--7----7-\----------------------------------------------------------|
A|--5----5-\----------------------------------------------------------|
D|--------------------------------------------------------------------|

Finished
Tap to rate this tab
# A B C D E F G H I J K L M N O P Q R S T U V W X Y Z