Song name
# A B C D E F G H I J K L M N O P Q R S T U V W X Y Z

Three Days Grace - Someone Who Cares tab

Tabbed by: Joshua Garcia (halofreak731@aol.com)

Tabs for the song: Someone Who Cares by Three Days Grace
Please rate and let me know if you have any corrections. Thank you.

Tuning: Drop D (D A D G B E)


Intro
Guitar 1:
E||--------------------------------|
B||--------------------------------|
G||-------10------8----------------| x3
D||-1--3--x--1-3--x--1-3-3---------|
A||-1--3--8--1-3--6--1-3-3--3b4r3--|
D||-1--3-----1-3-----1-3-3---------|


E||----------------|
B||----------------|
G||-------10----6--|
D||-1--3--x--1--6--|
A||-1--3--8--1--4--|
D||-1--3-----1-----|



Verse
Guitar 2:
E||-------------------------------------------------------------------------|
B||---------4-----------4-3----------------4------------3------------4-3----|
G||-------5------------------5-----------5---5---------------------5-----5--| x2
D||---5--------------5--------------3--5--------------5---------5-----------|
A||-3-------------3----------------------------6----3---------3-------------|
D||-----------------------------------------------5-------------------------|



E||----5------------------------------------------------|
B||--6---6----------6------------8------------8---------|
G||--------7------5---5--------7---7--------7---7-------| x2
D||----------0----------3-0----------5-0----------5-0---|
A||-----------------------------------------------------|
D||-----------------------------------------------------|



Chorus
Guitar 1:
E||---------------------------------------------------------|
B||---------------------------------------------------------|
G||-----------------3-3-3-3-3-3-3-3-5-5-5-5-5-5-5-5-5-5-5---|
D||-0-0-0-0-0-0-0-0-3-3-3-3-3-3-3-3-5-5-5-5-5-5-5-5-5-5-5---|
A||-0-0-0-0-0-0-0-0-1-1-1-1-1-1-1-1-3-3-3-3-3-3-3-3-3-3-3---|
D||-0-0-0-0-0-0-0-0-----------------------------------------|


E||-----------|
B||-----------|
G||------3-2--| (Back to chorus)
D||-3-2-------|
A||-----------|
D||-----------|


Guitar 2:
E||----5------------------------------------------------|
B||--6---6----------6------------8------------8---------|
G||--------7------5---5--------7---7--------7---7-------|
D||----------0----------3-0----------5-0----------5-0---|
A||-----------------------------------------------------|
D||-----------------------------------------------------|



Verse
Guitar 2:
E||-------------------------------------------------------------------------|
B||---------4-----------4-3----------------4------------3------------4-3----|
G||-------5------------------5-----------5---5---------------------5-----5--|
D||---5--------------5--------------3--5--------------5---------5-----------|
A||-3-------------3----------------------------6----3---------3-------------|
D||-----------------------------------------------5-------------------------|



Chorus
Guitar 1:
E||---------------------------------------------------------|
B||---------------------------------------------------------|
G||-----------------3-3-3-3-3-3-3-3-5-5-5-5-5-5-5-5-5-5-5---|
D||-0-0-0-0-0-0-0-0-3-3-3-3-3-3-3-3-5-5-5-5-5-5-5-5-5-5-5---|
A||-0-0-0-0-0-0-0-0-1-1-1-1-1-1-1-1-3-3-3-3-3-3-3-3-3-3-3---|
D||-0-0-0-0-0-0-0-0-----------------------------------------|


E||-----------|
B||-----------|
G||------3-2--| (Back to chorus) x4
D||-3-2-------|
A||-----------|
D||-----------|


Guitar 2:
E||----5------------------------------------------------|
B||--6---6----------6------------8------------8---------|
G||--------7------5---5--------7---7--------7---7-------| x4
D||----------0----------3-0----------5-0----------5-0---|
A||-----------------------------------------------------|
D||-----------------------------------------------------|



Bridge
Guitar 1:
E||----------------------|-----------------------|-------------------|-------------------|
B||----------------------|-----------------------|-------------------|-------------------|
G||----------------------|-----5-----5----5------|-----3-----3---3---|-----5-----5---5---|
D||------------------x5--|-------------------x2--|-------------------|-------------------|
A||-35355-35355-355------|-3535--3535--35--------|-3535--3535--35----|-3535--3535--35----|
D||----------------------|-----------------------|-------------------|-------------------|


E||----------------------|-----------------------|-------------------|-------------------|
B||----------------------|-----------------------|-------------------|-------------------|
G||-----7-----7---7------|-----5-----5---5-------|-----3-----3---3---|-----5-----5---5---|
D||------------------x4--|-------------------x2--|-------------------|-------------------|
A||-3535--3535--35-------|-3535--3535--35--------|-3535--3535--35----|-3535--3535--35----|
D||----------------------|-----------------------|-------------------|-------------------|


E||------------------------------------|
B||------------------------------------|
G||------------------------------------|
D||-3-3-3-3-3-3-3-3-3-3-3-3-3-3-3-3-3--|
A||-3-3-3-3-3-3-3-3-3-3-3-3-3-3-3-3-3--|
D||-3-3-3-3-3-3-3-3-3-3-3-3-3-3-3-3-3--|



Chorus
Guitar 1:
E||---------------------------------------------------------|
B||---------------------------------------------------------|
G||-----------------6-6-6-6-6-6-6-6-8-8-8-8-8-8-8-8-8-8-8---|
D||-3-3-3-3-3-3-3-3-6-6-6-6-6-6-6-6-8-8-8-8-8-8-8-8-8-8-8---|
A||-3-3-3-3-3-3-3-3-4-4-4-4-4-4-4-4-6-6-6-6-6-6-6-6-6-6-6---|
D||-3-3-3-3-3-3-3-3-----------------------------------------|


E||-----------|
B||-----------|
G||------6-5--| (Back to chorus) x3
D||-6-5-------|
A||-----------|
D||-----------|


E||----------------------------|
B||----------------------------|
G||-----------------6-6-6-6----|
D||-3-3-3-3-3-3-3-3-6-6-6-6----|
A||-3-3-3-3-3-3-3-3-4-4-4-4----|
D||-3-3-3-3-3-3-3-3------------|


Guitar 2:
E||----5------------------------------------------------|
B||--6---6----------6------------8------------8---------|
G||--------7------5---5--------7---7--------7---7-------| x4
D||----------0----------3-0----------5-0----------5-0---|
A||-----------------------------------------------------|
D||-----------------------------------------------------|



Outro
Guitar 1:
E||--------------------------------|-------------------|
B||--------------------------------|-------------------|
G||-------10------8----------------|-------10------6---|
D||-1--3--x--1-3--x--1-3-3---------|-1--3--x--1-3--6---|
A||-1--3--8--1-3--6--1-3-3--3b4r3--|-1--3--8--1-3--4---|
D||-1--3-----1-3-----1-3-3---------|-1--3-----1-3------|




Tablature Legend
----------------
 h   - hammer-on
 p   - pull-off
 b   - bend
 r   - release bend
 *   - pinch harmonic
 x   - mute note
 .   - palm mute
 /   - slide down
 \   - slide up
Tap to rate this tab
 
# A B C D E F G H I J K L M N O P Q R S T U V W X Y Z