Three Days Grace - The Chain tab

The Chain
Three Days Grace
Lost In You: Single

This is The Chain: a cover of a song by Fleetwood Mac, performed by Three Days Grace.
This is my first tab, so there might be one or 2 mistakes

Tuning: Drop D w/ Distortion

Intro:
E|------------------------------------------------------------------------|
B|------------------------------------------------------------------------|
G|-----------7-----------10~-------------7--------------------------------|
D|-----7------------7--------------7----------7---9-----------------------|
A|------------------------------------------------------------------------|
D|------------------------------------------------------------------------|

E|------------------------------------------------------------------------|
B|------------------------------------------------------------------------|
G|-----------7-----------10~-------------7--------------------------------|
D|-----7--7---------7--------------7--7-------7---9~----------------------|
A|-----------------------------------------------(9)~---------------------|
D|-----------------------------------------------(9)~---------------------|

Verse: x2 (pm)
E|------------------------------------------------------------------------|
B|------------------------------------------------------------------------|
G|------------------------------------------------------------------------|
D|-0-0-0-0-0-0-0-0-3-3-3-3-3-3-3-3-8-8-8-8-7-7-7-7-5-3-5------------------|
A|-0-0-0-0-0-0-0-0-3-3-3-3-3-3-3-3-8-8-8-8-7-7-7-7-5-3-5------------------|
D|-0-0-0-0-0-0-0-0-3-3-3-3-3-3-3-3-8-8-8-8-7-7-7-7-5-3-5------------------|

After 2nd time through
E|------------------------------------------------------------------------|
B|------------------------------------------------------------------------|
G|------------------------------------------------------------------------|
D|-0---0---0---0---0------------------------------------------------------|
A|-0---0---0---0---0------------------------------------------------------|
D|-0---0---0---0---0------------------------------------------------------|
  pm  pm

Chorus: Rhythm (Meedly) x2
E|------------------------------------------------------------------------|
B|------------------------------------------------------------------------|
G|------------------------------------------------------------------------|
D|-5---5---5---5-3-5---5---5---5-5-8---8-8-7---3-0---7-5-3-5-(0)----------|
A|-5---5---5---5-3-5---5---5---5-5-8---8-8-7---3-0---7-5-3-5-(0)----------|
D|-5---5---5---5-3-5---5---5---5-5-8---8-8-7---3-0---7-5-3-5-(0)----------|
                               Play the end strings the 2nd time through
Chorus: Lead (Squeedly)
E|---------------------------------13~--12-10-12~-----------12-10----10---|
B|--------------------------------------------------13-10~--------13------|
G|------------------------------------------------------------------------|
D|-5---5---5---5-3-5---5---5---5-5----------------------------------------|
A|-5---5---5---5-3-5---5---5---5-5----------------------------------------|
D|-5---5---5---5-3-5---5---5---5-5----------------------------------------|

E|-10---10---10---10----10---10---10---10-10-13~--12-10-12~---------------|
B|-------------------13--------------------------------------13-10~-------|
G|------------------------------------------------------------------------|
D|------------------------------------------------------------------------|
A|------------------------------------------------------------------------|
D|------------------------------------------------------------------------|

E|-12-10----10----|
B|-------13-------|
G|----------------|
D|-------------0~-|
A|-------------0~-|
D|-------------0~-|

Verse: x3 (pm)
E|------------------------------------------------------------------------|
B|------------------------------------------------------------------------|
G|------------------------------------------------------------------------|
D|-0-0-0-0-0-0-0-0-3-3-3-3-3-3-3-3-8-8-8-8-7-7-7-7-5-3-5------------------|
A|-0-0-0-0-0-0-0-0-3-3-3-3-3-3-3-3-8-8-8-8-7-7-7-7-5-3-5------------------|
D|-0-0-0-0-0-0-0-0-3-3-3-3-3-3-3-3-8-8-8-8-7-7-7-7-5-3-5------------------|

After 3rd time through
E|------------------------------------------------------------------------|
B|------------------------------------------------------------------------|
G|------------------------------------------------------------------------|
D|-0---0---0---0---0------------------------------------------------------|
A|-0---0---0---0---0------------------------------------------------------|
D|-0---0---0---0---0------------------------------------------------------|
  pm  pm

Chorus: Rhythm (Meedly) x2
E|------------------------------------------------------------------------|
B|------------------------------------------------------------------------|
G|------------------------------------------------------------------------|
D|-5---5---5---5-3-5---5---5---5-5-8---8-8-7---3-0---7-5-3-5-(0)----------|
A|-5---5---5---5-3-5---5---5---5-5-8---8-8-7---3-0---7-5-3-5-(0)----------|
D|-5---5---5---5-3-5---5---5---5-5-8---8-8-7---3-0---7-5-3-5-(0)----------|
                               Play the end strings the 2nd time through
Chorus: Lead (Squeedly)
E|---------------------------------13~--12-10-12~-----------12-10----10---|
B|--------------------------------------------------13-10~--------13------|
G|------------------------------------------------------------------------|
D|-5---5---5---5-3-5---5---5---5-5----------------------------------------|
A|-5---5---5---5-3-5---5---5---5-5----------------------------------------|
D|-5---5---5---5-3-5---5---5---5-5----------------------------------------|

E|-10---10---10---10----10---10---10---10-10-13~--12-10-12~---------------|
B|-------------------13--------------------------------------13-10~-------|
G|------------------------------------------------------------------------|
D|------------------------------------------------------------------------|
A|------------------------------------------------------------------------|
D|------------------------------------------------------------------------|

E|-12-10----10----|
B|-------13-------|
G|----------------|
D|-------------0~-|
A|-------------0~-|
D|-------------0~-|

Optional Bass Part
G|------------------------------------------------------------------------|
D|------------------------------------------------------------------------|
A|------------------------------------------------------------------------|
D|----5~---5-7-8--7-5-3-5-7--0~----5~---5-7-8--7-5-3-5-7--0~--------------|

G|------------------------------------------------------------------------|
D|------------------------------------------------------------------------|
A|------------------------------------------------------------------------|
D|----5~---5-7-8--7-5-3-5-7--0-0-0-0-0-5-5-5-5-5-5-7-8--7-5-3-5-7--0(x16)-|
                            The guitars come in right at this note ^

Bridge: (Start by palm muting, then transition to smoother notes) x1
E|------------------------------------------------------------------------|
B|------------------------------------------------------------------------|
G|------------------------------------------------------------------------|
D|-0-0-0-0-0-0-0-0-0-0-0-0-0-0-0-0--5-5-5-5-7-8-7-5-3-5--0-0-0-0-0-0-0-0--|
A|-0-0-0-0-0-0-0-0-0-0-0-0-0-0-0-0--5-5-5-5-7-8-7-5-3-5--0-0-0-0-0-0-0-0--|
D|-0-0-0-0-0-0-0-0-0-0-0-0-0-0-0-0--5-5-5-5-7-8-7-5-3-5--0-0-0-0-0-0-0-0--|

x2
E|---------------------------------------|
B|---------------------------------------|
G|---------------------------------------|
D|-5-5-5-5-7-8-7-5-3-5--0-0-0-0-0-0-0-0--|
A|-5-5-5-5-7-8-7-5-3-5--0-0-0-0-0-0-0-0--|
D|-5-5-5-5-7-8-7-5-3-5--0-0-0-0-0-0-0-0--|

E|----------------------------------------|
B|----------------------------------------|
G|----------------------------------------|
D|-5-5-5-5-7-8-7-5-3-5--00000-00000-00000-|
A|-5-5-5-5-7-8-7-5-3-5--00000-00000-00000-|
D|-5-5-5-5-7-8-7-5-3-5--00000-00000-00000-|

x2
E|---------------------------------------|
B|-------------------------(3)-----------|
G|-------------------------(2)-----------|
D|-5-5-5-5-7-8-7-5-3-5--0-0-0-0-0-0-0-0--|
A|-5-5-5-5-7-8-7-5-3-5--0-0-0-0-0-0-0-0--|
D|-5-5-5-5-7-8-7-5-3-5--0-0-0-0-0-0-0-0--|

Rhythm (Meedly) x4 (Ritardando on the 4th time)
E|---------------------------------------|
B|---------------------(3)---------------|
G|---------------------(2)---------------|
D|---5~--5-7-8-7-5-3-5--0~---------------|
A|---5~--5-7-8-7-5-3-5--0~---------------|
D|---5~--5-7-8-7-5-3-5--0~---------------|

Lead (Squeedly) x4 (Ritardando on the 4th time)
E|---10~---10-12-13--12-10----10-12------|
B|-------------------------13--------10--|
G|---------------------------------------|
D|---------------------------------------|
A|---------------------------------------|
D|---------------------------------------|


If there's any questions, please message me at Rnewman012@gmail.com
Tap to rate this tab
 
# A B C D E F G H I J K L M N O P Q R S T U V W X Y Z