Guitaretab - guitar tabs
Song name
# A B C D E F G H I J K L M N O P Q R S T U V W X Y Z

Three Days Grace - Running Away tab

Three Days Grace
Running Away
Tabbed by U B the band
Tuning Drop D

Legend
x-scratch
b-bend
rb-return bend
p-pull off

Intro/Verse: Guitar 1 (distorted) palm muted                      -|
e|----------------------------------------------------------------||
B|----------------------------------------------------------------||play
G|--------0----------0----------0--------0----------0----------0--||8
D|------4--------2-4--------2-4--------4--------0-4--------0-4----||times
A|----2--------2----------2----------0--------0----------0--------||
D|--2--------2----------2----------0--------0----------0----------||
                                                                  -|

Intro/Verse: Guitar 2 (clean)                                     -|
e|--0---0----0---------------------0---0----0---------------------||
B|--0---0----0---------------------3---3----3---------------------||play
G|--4---4----4---------------------2---2----2---------------------||6
D|--2---2----2---------------------0---0----0---------------------||times
A|--2---2----2---------------------0---0----0---------------------||
D|--2---2----2---------------------0---0----0---------------------||
                                                                  -|

Verse: Piano (after guitar 2 plays 4 times)                       -|
e|-----------7----------------------------------------------------||
B|--7---5--------------------------7------------------------------||play
G|-------------------------------------7--------------------------||2
D|------------------------------------------7---------------------||times
A|----------------------------------------------------------------||
D|----------------------------------------------------------------||
                                                                  -|

Pre-Chorus: Guitar 2 (distorted)
e|----------------------------------------------------------------|
B|----------------------------------------------------------------|
G|--5---5----5---------------------5---5----5---------------------|
D|--3---3----3---------------------5---5----5---------------------|
A|--3---3----3---------------------3---3----3---------------------|
D|--3---3----3----------------------------------------------------|

Pre-Chorus: Piano
e|----------------------------------------------------------------|
B|----------------------------------------------------------------|
G|----------------10---9-------------------------7---5------------|
D|--------------------------10----------------------------5-------|
A|----------------------------------------------------------------|
D|----------------------------------------------------------------|

Chorus: Guitars 1 & 2 (distorted)
e|----------------------------------------------------------------|
B|----------------------------------------------------------------|
G|----------------------------5-------------------------------5---|
D|--x-x-----5-----0-----3-----5-----x-x-----0-----8-----3-----5---|
A|--x-x-----5-----0-----3-----3-----x-x-----0-----8-----3-----3---|
D|--x-x-----5-----0-----3-----------x-x-----0-----8-----3---------|

Verse 2: Guitar 1 (distorted) palm muted                          -|
e|----------------------------------------------------------------||
B|----------------------------------------------------------------||play
G|--------0----------0----------0--------0----------0----------0--||4
D|------4--------2-4--------2-4--------4--------0-4--------0-4----||times
A|----2--------2----------2----------0--------0----------0--------||
D|--2--------2----------2----------0--------0----------0----------||
                                                                  -|

Verse 2: Guitar 2 (clean)                                         -|
e|--0---0----0---------------------0---0----0---------------------||
B|--0---0----0---------------------3---3----3---------------------||play
G|--4---4----4---------------------2---2----2---------------------||4
D|--2---2----2---------------------0---0----0---------------------||times
A|--2---2----2---------------------0---0----0---------------------||
D|--2---2----2---------------------0---0----0---------------------||
                                                                  -|
[ Tab from: http://www.guitaretab.com/t/three-days-grace/145331.html ]
Verse 2: Piano (after guitar 2 plays twice)                       -|
e|-----------7----------------------------------------------------||
B|--7---5--------------------------7------------------------------||play
G|-------------------------------------7--------------------------||2
D|------------------------------------------7---------------------||times
A|----------------------------------------------------------------||
D|----------------------------------------------------------------||
                                                                  -|

Pre-Chorus: Guitar 2 (distorted)
e|----------------------------------------------------------------|
B|----------------------------------------------------------------|
G|--5---5----5---------------------5---5----5---------------------|
D|--3---3----3---------------------5---5----5---------------------|
A|--3---3----3---------------------3---3----3---------------------|
D|--3---3----3----------------------------------------------------|

Pre-Chorus: Piano
e|----------------------------------------------------------------|
B|----------------------------------------------------------------|
G|----------------10---9-------------------------7---5------------|
D|--------------------------10----------------------------5-------|
A|----------------------------------------------------------------|
D|----------------------------------------------------------------|

Chorus: Guitars 1 & 2 (distorted)
e|----------------------------------------------------------------|
B|----------------------------------------------------------------|
G|----------------------------5-------------------------------5---|
D|--x-x-----5-----0-----3-----5-----x-x-----0-----8-----3-----5---|
A|--x-x-----5-----0-----3-----3-----x-x-----0-----8-----3-----3---|
D|--x-x-----5-----0-----3-----------x-x-----0-----8-----3---------|

Bridge: Guitars 1 & 2 (distorted)                                 -|
e|----------------------------------------------------------------||
B|----------------------------------------------------------------||play
G|--------------------------------------6b-------6b-------6brb----||3
D|--4-4-4--2--0--4-4-4--2--0--4-4--2p0--x---0-0--x---0-0--x-------||times
A|--4-4-4--2--0--4-4-4--2--0--4-4--2p0--4b--0-0--4b--0-0--4brb-p0-||
D|--4-4-4--2--0--4-4-4--2--0--4-4--2p0------0-0------0-0----------||
                                                                  -|

Pre-Chorus: Guitar 2 (distorted)
e|----------------------------------------------------------------|
B|----------------------------------------------------------------|
G|--5---5---5---5---5---5---5---5---5---5---5---5---5---5---5---5-|
D|--3---3---3---3---3---3---3---3---5---5---5---5---5---5---5---5-|
A|--3---3---3---3---3---3---3---3---3---3---3---3---3---3---3---3-|
D|--3---3---3---3---3---3---3---3---------------------------------|

Chorus 2: Guitars 1 & 2 (distorted)
e|--------------------------------------------33333333------------|
B|--------------------------------------------33333333------------|
G|--77777777------22222222------55555555------55555555------------|
D|--55555555------00000000------33333333------55555555----x-x-----|
A|--55555555------00000000------33333333------33333333----x-x-----|
D|--55555555------00000000------33333333------------------x-x-----|

e|----------------11111111--------------------33333333------------|
B|----------------11111111--------------------33333333------------|
G|--22222222------33333333------55555555------55555555------------|
D|--00000000------33333333------33333333------55555555----x-x-----|
A|--00000000------11111111------33333333------33333333----x-x-----|
D|--00000000--------------------33333333------------------x-x-----|

Chorus 2: Guitars 1 & 2 (distorted)
e|--------------------------------------------33333333------------|
B|--------------------------------------------33333333------------|
G|--77777777------22222222------55555555------55555555------------|
D|--55555555------00000000------33333333------55555555----x-x-----|
A|--55555555------00000000------33333333------33333333----x-x-----|
D|--55555555------00000000------33333333------------------x-x-----|

e|----------------11111111--------------------33333333------------|
B|----------------11111111--------------------33333333------------|
G|--22222222------33333333------55555555------55555555----4-------|
D|--00000000------33333333------33333333------55555555----2-------|
A|--00000000------11111111------33333333------33333333----2-------|
D|--00000000--------------------33333333------------------2-------|

Finished!
Related for Running Away tab
Advertisement will be closed in 10 seconds