Song name
# A B C D E F G H I J K L M N O P Q R S T U V W X Y Z

Three Days Grace - Get Out Alive tab

This is my NEW tab for this song. It's the remake of "Ver. 5". I'm really sorry for the 
of the other one. I didn't realize that my guitar was on standard tuning and the song is 
D..anyways here's the new one. Let me know if you see any errors.

Tuning: Drop D (E,B,G,D,A,D)

Intro:
|------------------------------------------------------------------|
|------------------------------------------------------------------|
|------------------------------------------------------------------|
|-----0-------0-------0-------0-------0-------0-------0------------|x6
|---------5-----5-6-------3-----3-5-------1-----1-3-------0---1-0--|
|-5-----0---------------0---------------0---------------0----------|

Verse:
|------------------------------------------------------------------|
|------------------------------------------------------------------|
|-------0-----0---------0-----0----------0-----0----------0-----0--|
|-----------0---------------0----------------0----------------0----|x2
|---5---------------1----------------3----------------5------------|
|-5---5-----------1---1------------3---3------------5---5----------|

Re-Intro:
|------------------------------------------------------------------|
|------------------------------------------------------------------|
|------------------------------------------------------------------|
|-----0-------0-------0-------0-------0-------0-------0------------|x3
|---------5-----5-6-------3-----3-5-------1-----1-3-------0---1-0--|
|-5-----0---------------0---------------0---------------0----------|

Verse:
|------------------------------------------------------------------|
|------------------------------------------------------------------|
|-------0-----0---------0-----0----------0-----0----------0-----0--|
|-----------0---------------0----------------0----------------0----|x4
|---5---------------1----------------3----------------5------------|
|-5---5-----------1---1------------3---3------------5---5----------|

Bridge: x2
|--------------------------------------------------------------------------|
|--------------------------------------------------------------------------|
|--------------------------------------------------------------------------|
|-10-10-10-10-10-10-10-10-0-0-0-0-0-0-0-0-5-5-5-5-5-5-0-1-1-1-1-1-1-1-1-1--|
|-8--8--8--8--8--8--8--8--0-0-0-0-0-0-0-0-5-5-5-5-5-5-0-1-1-1-1-1-1-1-1-1--|
|-8--8--8--8--8--8--8--8--0-0-0-0-0-0-0-0-5-5-5-5-5-5-0-1-1-1-1-1-1-1-1-1--|

Play This Once:
|------------------------------------------------------------------------|
|------------------------------------------------------------------------|
|------------------------------------------------------------------------|
|-1-0-------0-------0-------0-------0-------0-------0-------0------------|
|---------------5-----5-6-------3-----3-5-------1-----1-3-------0---1-0--|
|-----3-5-----0---------------0---------------0---------------0----------|

Breakdown:
|-------------------------------------------------------------|
|-------------------------------------------------------------|
|-------------------------------------------------------------|
|-8-7-5--5--0--0--13--13--10--10--0--0--8--8--10--10--7--8-7--|
|-8-7-5--5--0--0--13--13--10--10--0--0--8--8--10--10--7--8-7--|
|-8-7-5--5--0--0--13--13--10--10--0--0--8--8--10--10--7--8-7--|

|-----------------------------------------------------------|
|-----------------------------------------------------------|
|-----------------------------------------------------------|
|-5--5--0--0--13--13--10--10--0--0--8--8--10--10--7--8-7-0--|
|-5--5--0--0--13--13--10--10--0--0--8--8--10--10--7--8-7-0--|
|-5--5--0--0--13--13--10--10--0--0--8--8--10--10--7--8-7-0--|

Pre-Chorus:
|-------------------------------------------------------------------|
|-------------------------------------------------------------------|
|-------0-----0---------0-----0----------0------0----------0-----0--|
|-----------0---------------0-----------------0----------------0----|x4
|---5---------------1----------------3----------------5-------------|
|-5---5-----------1---1------------3---3------------5---5-----------|

Guitar 2 Comes In And Plays This:
|------------------------------------------------------------------|
|------------------------------------------------------------------|
|------------------------------------------------------------------|
|-5-5-5-5-5-5-5-5-1-1-1-1-1-1-1-1-3-3-3-3-3-3-3-3-5-5-5-5-5-5-5-5--|x2
|-5-5-5-5-5-5-5-5-1-1-1-1-1-1-1-1-3-3-3-3-3-3-3-3-5-5-5-5-5-5-5-5--|
|-5-5-5-5-5-5-5-5-1-1-1-1-1-1-1-1-3-3-3-3-3-3-3-3-5-5-5-5-5-5-5-5--|

Bridge: x3
|--------------------------------------------------------------------------|
|--------------------------------------------------------------------------|
|--------------------------------------------------------------------------|
|-10-10-10-10-10-10-10-10-0-0-0-0-0-0-0-0-5-5-5-5-5-5-0--1--1-1-1-1-1-1-1--|
|-8--8--8--8--8--8--8--8--0-0-0-0-0-0-0-0-5-5-5-5-5-5-0--1--1-1-1-1-1-1-1--|
|-8--8--8--8--8--8--8--8--0-0-0-0-0-0-0-0-5-5-5-5-5-5-0--1--1-1-1-1-1-1-1--|

|--------------------------------------------------------------------|
|--------------------------------------------------------------------|
|--------------------------------------------------------------------|
|-10-10-10-10-10-10-10-10-0-0-0-0-0-0-0-0-5-5-5-5-5-5-5-0-1-1-1-1-1--|
|-8--8--8--8--8--8--8--8--0-0-0-0-0-0-0-0-5-5-5-5-5-5-5-0-1-1-1-1-1--|
|-8--8--8--8--8--8--8--8--0-0-0-0-0-0-0-0-5-5-5-5-5-5-5-0-1-1-1-1-1--|

Outro:
|-------------------------------------------------------------|
|-------------------------------------------------------------|
|-------------------------------------------------------------|
|-8-7-5--5--0--0--13--13--10--10--0--0--8--8--10--10--7--8-7--|
|-8-7-5--5--0--0--13--13--10--10--0--0--8--8--10--10--7--8-7--|
|-8-7-5--5--0--0--13--13--10--10--0--0--8--8--10--10--7--8-7--|

|---------------------------------------------------------|
|---------------------------------------------------------|
|---------------------------------------------------------|
|-5--5--0--0--13--13--10--10--0--0--8--8--10--10--7--8-7--|
|-5--5--0--0--13--13--10--10--0--0--8--8--10--10--7--8-7--|
|-5--5--0--0--13--13--10--10--0--0--8--8--10--10--7--8-7--|

|-------------------------------------------------------|
|-------------------------------------------------------|
|-------------------------------------------------------|
|-5--5--0--0--13--13--10--10--0--0--8--8--10--10--7--8--|
|-5--5--0--0--13--13--10--10--0--0--8--8--10--10--7--8--|
|-5--5--0--0--13--13--10--10--0--0--8--8--10--10--7--8--|

End on:
|-----|
|-----|
|-----|
|-5~--|
|-5~--|
|-5~--|

Hope you like this one a lot better then the other one. I know I do!
Tap to rate this tab
# A B C D E F G H I J K L M N O P Q R S T U V W X Y Z