Song name
# A B C D E F G H I J K L M N O P Q R S T U V W X Y Z

Thrice - Moving Mountains tab

Alright im sick of the inexistence of a single decent tab of this song

This is how it goes!

|--------------------------------------------|
|---------1p0---0----------------8---8-------|
|---2-2-------2---2---2---9-9----9---9-9-----|
|---2---2-----------2-----7---7------7---7---|
|-0---------------------0----------0---------|
|--------------------------------------------|


|--------------------------1----------------|
|---1-----3p1---1----------3-3-----1---1----|
|---0-0-------0---0---0----2---2---0---0----|
|---2---2-----------2----0---------2---2----|
|-3------------------------------3---2------|
|-------------------------------------------|

then just play around with these chords and figure out the other progressions ... mkay!?
Tap to rate this tab
# A B C D E F G H I J K L M N O P Q R S T U V W X Y Z