Song name
# A B C D E F G H I J K L M N O P Q R S T U V W X Y Z

Thrice - To Awake And Avenge The Dead tab

To Awake and avenge the Dead Solo
Thrice
The Illusion of Safety 
Tabbed by Taylor Smith
Drop Db (1 and a half steps down)

Eb|----------------------/17-12-----|
Bb|----------5---56----56------13---|
Gb|-----7------------------------12-|
Db|-------77---7------7-------------|
Ab|--5--------------5---------------|
Db|---------------------------------|
     .  . ..   .    . .

Eb|-----------------/13-12-13151312-13-12-------|
Bb|----------5---56-----------------------13-15-|
Gb|-----7---------------------------------------|
Db|-------77---7--------------------------------|
Ab|--5------------------------------------------|
Db|---------------------------------------------|
     .  . ..   .

Eb|----------------------/17-12-----|
Bb|----------5---56----56------13---|
Gb|-----7------------------------12-|
Db|-------77---7------7-------------|
Ab|--5--------------5---------------|
Db|---------------------------------|
     .  . ..   .    . .

Eb|-----------------/13-12-13151312-13-12-------|
Bb|----------5---56-----------------------13-15-|
Gb|-----7---------------------------------------|
Db|-------77---7--------------------------------|
Ab|--5------------------------------------------|
Db|---------------------------------------------|
     .  . ..   .


Eb|----------------------/17-12-----|
Bb|----------5---56----56------13---|
Gb|-----7------------------------12-|
Db|-------77---7------7-------------|
Ab|--5--------------5---------------|
Db|---------------------------------| TIMES THREE
     .  . ..   .    . .

Eb|-----------------/13-12-13151312-13-12-------|
Bb|----------5---56-----------------------13-15-|
Gb|-----7---------------------------------------|
Db|-------77---7--------------------------------|
Ab|--5------------------------------------------|
Db|---------------------------------------------| TIMES ONE
     .  . ..   .

Eb|----------------------/17-12-----|
Bb|----------5---56----56------13---|
Gb|-----7------------------------12-|
Db|-------77---7------7-------------|
Ab|--5--------------5---------------|
Db|---------------------------------| TIMES THREE
     .  . ..   .    . .

Eb|-----------------/13-12-13151312-13-12-------|
Bb|----------5---56-----------------------13-15-|
Gb|-----7---------------------------------------|
Db|-------77---7--------------------------------|
Ab|--5------------------------------------------|
Db|---------------------------------------------| TIMES ONE
     .  . ..   .

ENDING
Eb|------------------------|
Bb|------------------------|
Gb|------------------------|
Db|--0000000--000000-0-0-0-|
Ab|--0000000--000000-0-0-0-|
Db|--0000000--000000-0-0-0-|
     .......  ...... . . .
Tap to rate this tab
# A B C D E F G H I J K L M N O P Q R S T U V W X Y Z