Song name
# A B C D E F G H I J K L M N O P Q R S T U V W X Y Z

Thursday - Porcelain tab

Artist:Thursday
Song:Porcelain
Album:Full Collapse

Tuning: Drop D


Intro:
e----------------------------------------------------------
b-------------------------------0-----0------0------0------
g----------------------------5-----5------5------5---------
d-0-0-0-----------------00-7-------------------------------
a-0-0-0-----------------00---------------------------------
D-0-0-0-----------------00---------------------------------

e----------------------------------------------------------
b------------------------------0-----0------0------0-------
g----------------------------5-----5------5------5---------
d-0-0-0-----------------00-0----------------------------x2-
a-0-0-0-----------------00---------------------------------
D-0-0-0-----------------00---------------------------------

e--------------------------------------
b------------0-0-0-0-----------0-0-0-0-
g------------5-5-5-5-----------5-5-5-5-
d-0-0-0-0-----------0-0-0-0------------
a-0-0-0-0-----------0-0-0-0------------
D-0-0-0-0-----------0-0-0-0------------



Verse and Chorus:
e----------------------------------------------------------------------
b-------------------------------------------0-0-0-0-----------0-0-0-0--
g-------------------------------------------5-5-5-5-----------5-5-5-5--
d-2-2-2-2-2-2-2-2-5-5-5-5-5-5-5-5--0-0-0-0------------0-0-0-0-------x4-
a-0-0-0-0-0-0-0-0-3-3-3-3-3-3-3-3--0-0-0-0------------0-0-0-0----------
D----------------------------------0-0-0-0------------0-0-0-0----------
Tap to rate this tab
# A B C D E F G H I J K L M N O P Q R S T U V W X Y Z