Song name
# A B C D E F G H I J K L M N O P Q R S T U V W X Y Z

Tiamat - Planets tab

TIAMAT - PLANETS
>From The Album: Wildhoney
Transcribed By: Fredrik Klingvall
_________________________________

There is a lot of synths in this one
but here is the guitar anyway...

Riff 1
|-----------------------------|
|-----------------------------|
|------7--9--10---------------|
|-7--------------10-----------|
|-----------------------------|
|-----------------------------|

Riff 2
|-----------------------------|
|-----------------------------|
|------7-----10---------------|
|-7--------------9------------|
|-----------------------------|
|-----------------------------|

Riff 1 (again)
|-----------------------------|
|-----------------------------|
|------7--9--10---------------|
|-7--------------10-----------|
|-----------------------------|
|-----------------------------|

Riff 3
|-12--------------------------|
|----13-12/7------------------|
|-----------------------------|
|------------9----------------|
|-----------------------------|
|-----------------------------|

Repeat this once and then end with:

Riff 4
|----------------------------|
|----------------------------|
|-7--------------------------|
|----------------------------|
|----------------------------|
|----------------------------|
Tap to rate this tab
# A B C D E F G H I J K L M N O P Q R S T U V W X Y Z