Song name
# A B C D E F G H I J K L M N O P Q R S T U V W X Y Z

Tiamat - To Have Or Have Not tab

Artist: Tiamat - To have or have not
Album: Skeleton Skeletron
Tab made by Icek (ice-m@o2.pl)

Intro (fade in) [0:00]

E|---------------------------------------------------------------------------|
H|-------0---0----------1---1----------0---0----------1---1----------0---0---|
G|---2-----2---2----2-----2---2----2-----2---2----2-----2---2----2-----2---2-|
D|-2---2----------2---2----------2---2----------2---2----------2---2---------|
A|---------------------------------------------------------------------------|
E|---------------------------------------------------------------------------|

Verse - bass guitar (but You can try on normal too) [0:10]

E|-5-3-5-0-3-3| ->2x

Again normal guitar (played together with bass) [0:25]

E|------------------------------|
H|-------1---1----------0---0---|
G|---2-----2---2----2-----2---2-|
D|-2---2----------2---2---------|
A|------------------------------|
E|------------------------------| ->4x

Chorus (chords) [0:41] a,e,F,F (I'm not sure about it)

   a   e   F
E|-0---0---1-
H|-1---0---1-
G|-2---0---2-
D|-2---2---3-
A|-0---2---3-
E|-0---0---1-

Repeat verse and chorus

Mini-solo [2:14]

E|----------------------------------------------|
H|-5-8-5-8-5-0-3-0-3-0-5--5-8-5-8-5-0-3-0-3-0---|
G|--------------------------------------------2-| ->3x

Chorus (played together with mini-solo) [3:00]
Chorus (played together with normal guitar part from verse) [3:15]
Tap to rate this tab
# A B C D E F G H I J K L M N O P Q R S T U V W X Y Z