Song name
# A B C D E F G H I J K L M N O P Q R S T U V W X Y Z

Tim Hawkins - Pretty Pink Tractor tab

Intro:                      b-bend: rb-release bend: r-release

E-------------------------------------------------------------E
B----------12-------------------------------------------------B
G-9-11b-11b--11rb-9-11-9-11-9-11b-11rb-9-11-9------------9----G
D--------------------------------------------11-9-11-9-11--11-D
A-------------------------------------------------------------A
E-------------------------------------------------------------E




Intro to the second verse:
(A lot like the first intro)

E----------------------------------------E
B----------12---------12b-12rb-----------B
G-9-11b-11b--11rb-9-11--------11b-11rb-9-G
D----------------------------------------D
A----------------------------------------A
E----------------------------------------E




Solo 
(I'm not to sure bout the last part of the solo but this is the way I hear it)

(1st part)
E-0-4r-0-5r-0-7r-0-5r-0-4r-0-4r-0-5r-0-7r-0-5r-0-4r-0-E
B-----------------------------------------------------B
G-----------------------------------------------------G
D-----------------------------------------------------D
A-----------------------------------------------------A
E-----------------------------------------------------E


(Middle part)
E-0-11r-0-12r-0-14r-0-12r-0-11r-0-12r-0-14-E
B------------------------------------------B
G------------------------------------------G
D------------------------------------------D
A------------------------------------------A
E------------------------------------------E


(Last part)
E-----------------------9-12-9--------------------E
B-------------------9-12------12-9----------------B
G---------------9-11---------------11-11b-11rb-9--G
D-----------9-11----------------------------------D
A----7-9s-11--------------------------------------A
E-7-9---------------------------------------------E
Tap to rate this tab
# A B C D E F G H I J K L M N O P Q R S T U V W X Y Z