Song name
# A B C D E F G H I J K L M N O P Q R S T U V W X Y Z

Time Again - Undercover Angel tab

Verse:
e|------------------------|
B|------------------------|
G|---------------3--------|
D|-3------5------3------3-|
A|-3------5------1------3-|
E|-1------3-------------1-|



Chorus:
e|------------------------------|
B|------------------------------|
G|-7-5-3--3-3-3-----------------|
D|-7-5-3--3-3-3-3-3-3-3-5-5-5-5-|
A|-5-3-1--1-1-1-3-3-3-3-5-5-5-5-|
E|--------------1-1-1-1-3-3-3-3-|

e|----------------------------------|
B|----------------------------------|
G|-7-5-3--3-3-3-10-10-10-10-5-5-5-5-|
D|-7-5-3--3-3-3-8--8--8--8--5-5-5-5-|
A|-5-3-1--1-1-1-8--8--8--8--3-3-3-3-|
E|----------------------------------|


Can't figure out the ska upstroke part.
If anyone figures it out, post it.



Ending:
e|-----------------------------|
B|-----------------------------|
G|-7-5-3--3-3-3--10------------|
D|-7-5-3--3-3-3--10--let ring--|
A|-5-3-1--1-1-1--8-------------|
E|-----------------------------|
Tap to rate this tab
 
# A B C D E F G H I J K L M N O P Q R S T U V W X Y Z