Song name
# A B C D E F G H I J K L M N O P Q R S T U V W X Y Z

Time Again - Outcast tab

Help us improve GuitareTab! Take a short survey!
Band: Time Again
Song: Outcast

Intro:
e|---------------|
B|---------------|
G|---------------|
D|----55-7-9999--|
A|-33-33-5-8888--|
E|-11------------|

Pre-chorus
e|------------------------------------------------|
B|------------------------------------------------|
G|------------------------------------------------|
D|-----------------33333333-55555555-33333333-5---|
A|-3~--------------11111111-33333333-11111111-3---|
E|-1~---------------------------------------------|
                    .......  .......  .......
                  "would you fall............as an outcast"

Chorus
e|-------------------------------------|
B|-------------------------------------|
G|-------------------------------------|
D|------------------33333333-55555555--|
A|-3333333333333333-11111111-33333333--|
E|-1111111111111111--------------------|


Pre-verse
e|----------------------------|
B|----------------------------|
G|-555555555555555-4-8888888--|
D|----------------------------|
A|----------------------------|
E|----------------------------|

Verse
e|-------------------------------------|
B|-------------------------------------|
G|-------------------------------------|
D|-77777777-55555555----------33333333-|
A|-55555555-33333333-33333333-11111111-|
E|-------------------11111111----------|
   ........ ........ ........ ........
Related for Outcast tab