Song name
# A B C D E F G H I J K L M N O P Q R S T U V W X Y Z

Times Of Grace - Willing Acoustic tab

Intro
e|-0--0-----0--0-----0--0-----0--0-----0--0-----0--0-----0---0---|
B|-0----0---0----0---0----0---0----0---0----0---0----0---0---0---|
G|-6------6-6------6-9--------x------6-6------6-6------6-4---6---|
D|-6--------6--------9------9-6--------6--------6--------4---6---|
A|-4--------4--------7--------6--------4--------4--------2---4---|
E|----------------------------4----------------------------------|


Verse Pt. 1
|-----------------------------------------------------------------------|
|-----------------------------------------------------------------------|
|-----------------------------------------------------------1-----------|
|---4---------4---------1---2---4---1---2---4---4---2---1-------4---1---|
|-4---4-7-6-4---4-7-6-2---2---2---2---1---1---0---0---0---2---2---2-----|
|-----------------------------------------------------------------------|


Verse Pt. 2
|---------------------------------------------------|2x
|---------------------------------------------------|then switch to
|---2---1-------2---1-------2---1---4---2---1---2---|or add the
|-----------2-----------2-------------2---2---2-----|harmony below
|-0---0---0---0---0---0---4---4---4-----------------|
|---------------------------------------------------|
|
|
|-------------------------|---------------------------|
|-------------------------|-----------5---------------|
|---6---4-------6---4-----|---6---4-------6-------9---|
|-----------7-----------7-|-------------------9-------|
|-0---0---0---0---0---0---|-4---4---4---7---7---7-----|
|-------------------------|---------------------------|
                          |
                          |-0-----------0-------------|
                          |-0-----------0-------------|whichever part you
                          |-6-----------9-------------|play, play these
                          |-6-----------9-------------|instead of the
                          |-4-----------7-------------|bit above it before
                          |---------------------------|the chorus



Chorus-sorry that i only did one guitar part, ill add the rythym (for the whole song) later
|------------------------------------------------------|2x
|-----------7/9\7---7/9\7--------------12--------------| then..
|-------8-9-------9-------8---8-9-9/11----11-11\9-8----|
|-9/11~---------------------9~----------------------9--|
|------------------------------------------------------|
|------------------------------------------------------|
|
|-0-----0------------------------0------0-------0------|
|-------------7/9\7---7/9\7---------0------0-------0---|
|---8-----8-9-------9-------8----------6------6------6-|
|-----9-----------------------9~-----------------------|
|------------------------------------------------------|
|------------------------------------------------------|


Solo-type Thing            3x |
|-----------------------------|------------------------------|
|-----------------------------|---7-----7-----7-----7-----7--|
|-9-8-9---------9-8-9---------|-9-----9-----9-----9-----9----|
|-------9-------------9-------|-----9-----9-----9-----9------|
|---------12-11---------12-11-|------------------------------|
|-----------------------------|------------------------------|


Bridge-if you're playing alone and want to try and add the rythym just play the open notes in 
parentheses every few strums
               2x |            2x | 
|---(0)-(0)-(0)---|---0---0---0---|
|---(0)-(0)-(0)---|---0---0---0---|
|--------6---9----|---6---4---x---|
|----7---6---9----|---6---4---6---|
|----7---4---7----|---4---2---6---|
|----5------------|-----------4---|


Outro
|-0----------------------------0---0---0------------------------------|
|-----------7/9\7---7/9\7------0---0--------------7/9\7---7/9\7-------|
|---8---8-9-------9-------8----9---9------8---8-9-------9-------8-----|
|-----9---------------------9~-9---9--------9---------------------9~--|
|------------------------------7---7----------------------------------|
|---------------------------------------------------------------------|

|-0-----0-----0-----0-0--|
|---0-----0-----0---0-0--|
|-----6-----6-----6-6-6--|
|-------------------6-6--|
|-------------------4-4--|
|------------------------|

Song Order:

Intro
Verse Pt. 1/2
Chorus
Verse Pt. 1/2
Chorus
Solo Thing
Bridge
Solo Thing-(rhythym does seond half of bridge)
0utro
Tap to rate this tab
 
# A B C D E F G H I J K L M N O P Q R S T U V W X Y Z