Song name
# A B C D E F G H I J K L M N O P Q R S T U V W X Y Z

Tiny Vipers - Dreamer tab

Tiny Vipers - Dreamer

Tuning
String #	6	5	4	3	2	1
Open Note	E	A	B	D	B	E
Tune Adj.	0	0	-3	-4	0	0

E
-------------------|
----------0--------|
--------9--9-------|
------9------9-----|
---9-----------9---|
-0---------------0-|

C#/E
---------------------|
----------0----------|
--------9--9---------|
------9------9-------|
---9-----------9-----|
-9---------------9---|

B/E
---------------------|
----------0----------|
--------9--9---------|
------9------9-------|
---9-----------9-----|
-7---------------7---|

E
Inside my head I cast a shadow
C#                  B                      E
  Not someone who痴 seen this side of me
         C#              B                     E
But it drifts across the grounds that down I look
          C#            B                      E
But I can spend my time wondering who I was
           C#                  B                    E
And I can count the times that I am lost or won
           C#              B                    E
I can turn towards you and ask you what you saw
        C#           B              E
Oh but what do these feelings mean?

Come Meet me on this path of wonder
Take my hand I壇 like to share with you
And can we learn when we can稚 understand
And we can spend our time wondering what could be
And we can ask of God to show us where we stand
And you could follow me   back to     where we met
Oh but    what have you     been dreaming of?

E                         C#    B
I知 going to live but I知 living far away
And I知 gonna die I知 dying for a way out
               C#   B
I知 dying for a way out
I知 dying for a way out
Tap to rate this tab
# A B C D E F G H I J K L M N O P Q R S T U V W X Y Z