Song name
# A B C D E F G H I J K L M N O P Q R S T U V W X Y Z

Title Fight - Western Haikus tab

-----------------------------------------------------------------------------
			     WESTERN HAIKUS - Title Fight
-----------------------------------------------------------------------------

Tabbed by: Raphael Bastek
Email: raf_gpm@yahoo.com

Tuning: Drop D

Key:
. = palm mute
/ = slide

Lead Guitar only.

Part A

e|------------------------|--repeat, then play this------------------------|
B|------------------------|--after each subsequent time--------------------|
G|-/9999-7777-------------|------------------------------------------------|
D|-/0000-0000-9999-7-555--|--77777777-55555555-----------------------------|
A|------------0000-0-000--|--00000000-00000000-----------------------------|
E|------------------------|------------------------------------------------|

Part B

e|-------------------------------------------------------------------------|
B|-------------------------------------------------------------------------|
G|-------------------------------------------------------------------------|
D|-55-5--77-7--7777--------------------------------------------------------|
A|-55-5--77-7--7777--------------------------------------------------------|
E|-55-5--77-7--7777--------------------------------------------------------|
   ..    ..

Part C (1:48-1:52ish)
Just play G5

D|-5-|
A|-5-|
E|-5-|

repeatedly.
Tap to rate this tab
# A B C D E F G H I J K L M N O P Q R S T U V W X Y Z