Song name
# A B C D E F G H I J K L M N O P Q R S T U V W X Y Z

Toad The Wet Sprocket - Pray Your Gods tab

-----------------------------------------------------------------------------
               "Pray Your Gods" - Toad The Wet Sprocket
-----------------------------------------------------------------------------
Tabbed by: Matt
Email: Unpresspoet009@aol.com

It's not every single strum, but it's the closest thing to an accurate tab 
of this song in existence. For all of you out there, like me, who have sat and played
your acoustic guitar with this song on repeat, trying to figure out what the hell he's
doing, may this tab alleviate some of your pain.



    INTRO
e|--------------------------------------------------------------------------|
B|----------3---------------3---------------3-------------------------------|
G|------0-------0-------0-------0-------0-------0-------0-------0-----------|
D|----4---4---4---4---4---4---4---4---4---4---4---4---4---4---4---4---------|
A|--2---------------0---------------------------------------0---------------|
E|----------------------------------3---------------3-----------------------|
   
    
   


    VERSE  (words start here)
e|--------------------------------------------------------------------------|
B|----------3---------------3---------------3---------------3---------------|
G|------0-------0-------0-------0-------0-------0-------0-------0-----------|
D|----4---4---4---4---4---4---4---0---4---4---4---4---4---4---4---4---------|
A|--2---------------0-------------------------------0-----------------------|
E|----------------------------------3---------------------------------------|

e|--------------------------------------------------------------------------|
B|----------3---------------3---------------3---------------3---------------|
G|------0-------0-------0-------0-------0-------0-------0-------0-----------|
D|----4---4---4---4---4---4---4---4---4---4---4---4---4---4---4---4---------|
A|----------------------------------2---------------0-----------------------|
E|--3---------------0-------------------------------------------------------|


   

    CHORUS
e|--3-------------------------------------2---------------------------------|
B|--3-------------------------------------3---------------------------------|
G|--0-------------------------------------2---------------------------------|
D|--0-------------------------------------0---------------------------------|
A|--2-----------------------------------------------------------------------|
E|--3-----------------------------------------------------------------------|
    Pray your gods who ask you for you blood


e|--2--------------------------------------0-------------5------------------|
B|--3--------------------------------------2-------------3------------------|
G|--4--------------------------------------2-------------2------------------|
D|--4--------------------------------------2-------------2------------------|
A|--2--------------------------------------0-------------0------------------|
E|--------------------------------------------------------------------------|
    For they are quick and ruthless punishers


e|--3---------------0--------------2----------0----------3------------------|
B|--3---------------2--------------3----------2----------3------------------|
G|--0---------------2--------------4----------2----------0------------------|
D|--0---------------2--------------4----------2----------0------------------|
A|--2---------------0--------------2----------0----------2------------------|
E|--3----------------------------------------------------3------------------|
    Or lay upon my altar now your love


e|--3---------------------3--------------3----------------------------------|
B|--3---------------------3--------------3----------------------------------|
G|--0---------------------0--------------0----------------------------------|
D|--0---------------------2--------------0---------------------0------------|
A|--2---------------------2--------------2----------------------------------|
E|--3---------------------0--------------3-------------2--------------------|
    I fear...  There are...   moving closer...    Be quick my love
Tap to rate this tab
# A B C D E F G H I J K L M N O P Q R S T U V W X Y Z