Song name
# A B C D E F G H I J K L M N O P Q R S T U V W X Y Z

Tobuscus - Theme Song tab

Solo on the other good tab on here was kinda wrong, so I've corrected it (I think)
Not too sure about the chords in the intro and outro though, they may be wrong
Tabbed by ElliottRhodes, hope you find it easy enough to play, its a hell of an intro 
and beatiful riff in my opinion

Follow me on twitter, @ElliottRhodes, I'm hoping to get some more tabs written soon

Intro

e|--------------------------------|--------------------------------|
B|--------------------------------|--------------------------------|
G|--------------------------------|--------------------------------|
D|-3/5--5-7-----------3p0---------|-3/5---5-7---2-2-2/4------------|
A|-3/5-5------7p5-5-5-----3p0-----|-3/5-5-------3-3-3/5-0----------|
D|-3/5------0---------------------|-3/5-------0-0-0-0-0-0----------|

e|--------------------------------|--------------------------------|
B|--------------------------------|--------------------------------|
G|--------------------------------|--------------------------------|
D|-3/5--5-7-----------3p0---------|---------------3-5--------------|
A|-3/5-5------7p5-5-5-----3p0-----|-----------3-5-----3-3h5--------|
D|-3/5------0---------------------|-3/5-0-3-5----------------------|

Solo

e|--------------------------------|----------------------------12--|
B|-15p13----13--------------------|-------15p13----13----13-15-----|
G|-------14----14-12-14-15-14-12--|-14----------14----14-----------|
D|--------------------------------|----12--------------------------|
A|--------------------------------|--------------------------------|
D|--------------------------------|--------------------------------|

e|---------------------------------|-------------------------------------------------|
B|-15-13-15/-15p13----13-----------|-------------------------------------------------|
G|----------------14----14-12-14---|-15-14-12-14----15-14-12-------------------------|
D|---------------------------------|-------------12----------15-14-12-14-12-10-10h12-|
A|---------------------------------|-------------------------------------------------|
D|---------------------------------|-------------------------------------------------|

Outro

e|--------------------------------|--------------------------------|
B|--------------------------------|--------------------------------|
G|--------------------------------|--------------------------------|
D|-3/5--5-7-----------3p0---------|-3/5---5-7---2-2-2/4------------|
A|-3/5-5------7p5-5-5-----3p0-----|-3/5-5-------3-3-3/5-0----------|
D|-3/5------0---------------------|-3/5-------0-0-0-0-0-0----------|

e|--------------------------------|--------------------------------|
B|--------------------------------|--------------------------------|
G|--------------------------------|--------------------------------|
D|-3/5--5-7-----------3p0---------|---------------3-5--------------|
A|-3/5-5------7p5-5-5-----3p0-----|-----------3-5-----3-3h5--------|
D|-3/5------0---------------------|-3/5-0-3-5----------------------|
Tap to rate this tab
 
# A B C D E F G H I J K L M N O P Q R S T U V W X Y Z