Guitaretab - guitar tabs
Song name
# A B C D E F G H I J K L M N O P Q R S T U V W X Y Z

Tokio Hotel - Scream tab

Tokio Hotel  Scream *Here is my second attempt to tab this song. I think it looks 
now that I got some advice, so thanks again :]*
*Tuning: Eb*

Intro:

e|---------------------------------------------------|
B|---------------------------------------------------|
G|---4-4------------------------4--------------------|
D|---4-4----------------[x4]---4[let ring]----------|
A|---2-2---2-3-0-22----------2-----------------------|
E|-----------------------------------------------3---|

Verse:

You get up, and somebody tells you where to go to...
e|---5-2---[let ring]------------------------------------2-------------------|
B|------------------------------------------------------------3---[x5]-------|
G|---------------------------------------------------------------------------|
D|---------------------------------------------------------------------------|
A|---------------------------------------------------------------------------|
E|---------------------------------------------------------------------------|

Pre-Chorus:
e|--------------------------------------------------------------------|
B|--------------------------------------------------------------------|
G|--------------------------------------------------------------------|
D|---7-7-7-7-7-7-7-7---4-4-4-4-4-4------------------------------------|
A|---7-7-7-7-7-7-7-7---4-4-4-4-4-4---[*palm muted*]-------------------|
E|---5-5-5-5-5-5-5-5---2-2-2-2-2-2------------------------------------|

Chorus: [x2]
[ Tab from: http://www.guitaretab.com/t/tokio-hotel/181591.html ]
Scream! Till you feel it!...And when it hurts you, scream it out loud!
e|-----------------------------------------------------|
B|-----------------------------------------------------|
G|---4-4----------------------5-5---7-7-7-7------------|
D|---4-4--------------[x3]---5-5---7-7-7-7-------------|
A|---2-2---2-3-0-22--------3-3---5-5-5-5---------------|
E|-----------------------------------------------------|

Then...verse 2, pre-chorus, and chorus...[all the same tabs as before]

Bridge:
Back to zero, you're time's about to come...
e|--------------------------------------------------------------------------|
B|--------------------------------------------------------------------------|
G|--------------------------------------------------------------------------|
D|---9-9-9-9-9-9-9-9---5-5-5-5-5-5-5-5---7-7-7-7-7-7-7-7---4-4-4-4-4-4-4-4--|
A|---9-9-9-9-9-9-9-9---5-5-5-5-5-5-5-5---7-7-7-7-7-7-7-7---4-4-4-4-4-4-4-4--|
E|---7-7-7-7-7-7-7-7---3-3-3-3-3-3-3-3---5-5-5-5-5-5-5-5---2-2-2-2-2-2-2-2--|

e|------------------------------------------|
B|------------------------------------------|
G|------------------------------------------|
D|------------------------------------0-----|
A|---2-3-0-22[x7]---2-3-0-2----------------|
E|------------------------------------------|

Then...chorus [same tab], and NO!

                                                        Final scream!
e|----------------------------------------------------------------|
B|----------------------------------------------------------------|
G|----------------------------------------------------------4-----|
D|-------------------------5-5-5-5-5-5---3-3-3-3-3---4------------|
A|---2-3-0-22---[x6]---5-5-5-5-5-5---3-3-3-3-3---2----------------|
E|-------------------------3-3-3-3-3-3---5-5-5-5-5----------------|
Related for Scream tab