Tokio Hotel - Scream tab

e|-------------------------------|
B|-------------------------------|
G|-------------------------------|
D|-----8--8----------------------|
A|-----8--8----------------------|
E|-----6--6--6-7-4-6-4     <-----|play four times

e|-------------------------------|
B|-------------------------------|
G|-------------------------------|
D|-----8--8---4--4---------------|
A|-----8--8---4--4---------------|
E|-----6--6---2--2----     <-----|play five or six times

e|-------------------------------|
B|-------------------------------|
G|-----8--10---------------------|
D|-----8--10---------------------|
A|-----6--8-----------     <-----|strum each back and forth seven times
E|-------------------------------|

e|-------------------------------|
B|-------------------------------|
G|-------------------------------|
D|-----8--8----------------------|
A|-----8--8----------------------|
E|-----6--6--6-7-4-6-4     <-----|play 2 times

e|-------------------------------------|
B|-------------------------------------|
G|------------------------------8---10-|
D|-----8--8-------------4---4---8---10-|
A|-----8--8-------------4---4---6---8--|
E|-----6--6--6-7-4-6-4--2---2----------|

e|-------------------------------|
B|-------------------------------|
G|-------------------------------|
D|-----8--8----------------------|
A|-----8--8----------------------|
E|-----6--6--6-7-4-6-4     <-----|play 2 times

e|-------------------------------------|
B|-------------------------------------|
G|------------------------------8---10-|
D|-----8--8-------------4---4---8---10-|
A|-----8--8-------------4---4---6---8--|
E|-----6--6--6-7-4-6-4--2---2----------|

e|-------------------------------|
B|-------------------------------|
G|-------------------------------|
D|-----8--8---4--4---------------|
A|-----8--8---4--4---------------|
E|-----6--6---2--2----     <-----|play five times

e|-------------------------------|
B|-------------------------------|
G|-----8--10---------------------|
D|-----8--10---------------------|
A|-----6--8-----------     <-----|strum each back and forth seven times
E|-------------------------------|

e|-------------------------------|
B|-------------------------------|
G|-------------------------------|
D|-----8--8----------------------|
A|-----8--8----------------------|
E|-----6--6--6-7-4-6-4     <-----|play 2 times

e|-------------------------------------|
B|-------------------------------------|
G|------------------------------8---10-|
D|-----8--8-------------4---4---8---10-|
A|-----8--8-------------4---4---6---8--|
E|-----6--6--6-7-4-6-4--2---2----------|

e|-------------------------------|
B|-------------------------------|
G|-------------------------------|
D|-----8--8----------------------|
A|-----8--8----------------------|
E|-----6--6--6-7-4-6-4     <-----|play 2 times

e|-------------------------------------|
B|-------------------------------------|
G|------------------------------8---10-|
D|-----8--8-------------4---4---8---10-|
A|-----8--8-------------4---4---6---8--|
El-----6--6--6-7-4-6-4--2---2----------|

e|-----------------------------------|
B|-----------------------------------|
G|-----------------------------------|
Dl-----8--8--8--8--8--8--8--8--------|
Al-----8--8--8--8--8--8--8--8--------|
El-----6--6--6--6--6--6--6--6--------|

e|-----------------------------------|
B|-----------------------------------|
G|-----------------------------------|
Dl-----4--4--4--4--4--4--4--4--------|
Al-----4--4--4--4--4--4--4--4--------|
El-----2--2--2--2--2--2--2--2--------|

e|-----------------------------------|
B|-----------------------------------|
G|-----------------------------------|
Dl-----6--6--6--6--6--6--6--6--------|
Al-----6--6--6--6--6--6--6--6--------|
El-----4--4--4--4--4--4--4--4--------|

e|-----------------------------------|
B|-----------------------------------|
G|-----------------------------------|
Dl-----6--6--6--6--6--6--6--6--------|
Al-----6--6--6--6--6--6--6--6--------|
El-----4--4--4--4--4--4--4--4--------|

e|---------------------------------------------|
B|---------------------------------------------|
G|---------------------------------------------|
Dl---------------------------------------------|
Al---------------------------------------------|
El-----6--7--4--6--4--------------      <------|play 7 times


e|-------------------------------|
B|-------------------------------|
G|-------------------------------|
D|-----8--8----------------------|
A|-----8--8----------------------|
E|-----6--6--6-7-4-6-4     <-----|play 2 times

e|-------------------------------------|
B|-------------------------------------|
G|------------------------------8---10-|
D|-----8--8-------------4---4---8---10-|
A|-----8--8-------------4---4---6---8--|
El-----6--6--6-7-4-6-4--2---2----------|

e|-------------------------------|
B|-------------------------------|
G|-------------------------------|
D|-----8--8----------------------|
A|-----8--8----------------------|
E|-----6--6--6-7-4-6-4     <-----|play 2 times

e|-------------------------------------|
B|-------------------------------------|
G|------------------------------8---10-|
D|-----8--8-------------4---4---8---10-|
A|-----8--8-------------4---4---6---8--|
El-----6--6--6-7-4-6-4--2---2----------|

e|---------------------------------------------|
B|---------------------------------------------|
G|---------------------------------------------|
Dl---------------------------------------------|
Al---------------------------------------------|
El-----6--7--4--6--4--------------      <------|play 6 times

e|------------------------------|
B|------------------------------|
G|-----------------------8---10-|
D|---------------4---4---8---10-|
A|---------------4---4---6---8--|
El---------------2---2----------|

e|---------------------------------------------|
B|---------------------------------------------|
G|---------------------------------------------|
Dl---------------------------------------------|
Al---------------------------------------------|
El-----6--7--4--6--4--------------      <------|play 6 times

e|------------------------------|
B|------------------------------|
G|-----------------------8---10-|
D|---------------4---4---8---10-|
A|---------------4---4---6---8--|
El---------------2---2----------|

e|-----------------------|
B|-----------------------|
G|-----------------------|
D|-----8-----------------|
A|-----8-----------------|
El-----6-----------------|
Tap to rate this tab
 
# A B C D E F G H I J K L M N O P Q R S T U V W X Y Z