Song name
# A B C D E F G H I J K L M N O P Q R S T U V W X Y Z

Tokio Hotel - Automatisch tab

This is the german version of Automatic

Tabbed by:XxGuitarZer0xX

Email:Spongebobs400s@hotmail.com

Tuning:Drop D

Intro:
e|--------------------------------------------|
B|--------------------------------------------|
G|-----8------8------8---10-----10----10--10--|
D|-8-8---8--8---8--8---8----8-8-----8----8----|
A|--------------------------------------------|
D|--------------------------------------------|

Verse:
e|---------------------------------------|
B|-----------------------------8---8-----|
G|-----8-----8---8---8---8---8---8---8---|
D|-6-6---6-6---6---6---6---6-------------|
A|---------------------------------------|
D|---------------------------------------|

e|---------------------------------------|  
B|-----------------------------8---8-----|
G|-----8-----8---8---8---8---8---8---8---|
D|-8-8---8-8---8---8---8---8-------------|
A|---------------------------------------|
D|---------------------------------------|
repeat this (the end is a bit different)

Chorus
e|---------------------------------------------------------------------|
B|---------------------------------------------------------------------|
G|---------------------------------------------------------------------|
D|-6666666666666-101010-888888888-101010-666666666666-101010-888888888-|
A|-6666666666666-101010-888888888-101010-666666666666-101010-888888888-|
D|-6666666666666-101010-888888888-101010-666666666666-101010-888888888-|

VERSE (almost the same, but with more notes and it goes quicker now)

Chorus (same as before)



First solo
e|----------------------------------------------------------------------------|
B|-1313131313131313----------------------15151515151515151515-----------------|
G|-----------------1212121212121212121212-------------------------------------|
D|-----------------------------------------------------------1313131313131313-|
A|----------------------------------------------------------------------------|
E|----------------------------------------------------------------------------|




Bridge
e|---------------------------------------------|
B|---------------------------------------------|
G|---------------------------------------------|
D|-66666666-55555555-1010101010101010-88888888-| Repeat 3 times
A|-66666666-55555555-1010101010101010-88888888-|
D|-66666666-55555555-1010101010101010-88888888-|




No Guitar (break)




Second Solo
e|---------------------------------------------------------|
B|---------------------------------------------------------|
G|-55555555--7777-8888--1212121212121212--1010101010101010-|
D|-xxxxxxxx--xxxx-xxxx--xxxxxxxxxxxxxxxx--x-x-x-x-x-x-x-x--|
A|-33333333--5555-6666--1010101010101010--8-8-8-8-8-8-8-8--|
D|---------------------------------------------------------|

... weinst du nicht
e|---------------------------------------------------------|
B|---------------------------------------------------------|
G|-55555555--7777-8888--1515151515151515--1010101010101010-|
D|-xxxxxxxx--xxxx-xxxx--xxxxxxxxxxxxxxxx--x-x-x-x-x-x-x-x--|
A|-33333333--5555-6666--1313131313131313--8-8-8-8-8-8-8-8--|
D|---------------------------------------------------------|




CHORUS
e|---------------------------------------------------------------------|
B|---------------------------------------------------------------------|
G|---------------------------------------------------------------------|
D|-6666666666666-101010-888888888-101010-666666666666-101010-888888888-|
A|-6666666666666-101010-888888888-101010-666666666666-101010-888888888-|
D|-6666666666666-101010-888888888-101010-666666666666-101010-888888888-|




Third Solo
e|----------------------------------------------------------------------------|
B|-1313131313131313----------------------15151515151515151515-----------------|
G|-----------------1212121212121212121212-------------------------------------|
D|-----------------------------------------------------------1313131313131313-|
A|----------------------------------------------------------------------------|
E|----------------------------------------------------------------------------|

e|---|
B|---|
G|---|
D|-6-|
A|-6-|
D|-6-|

Enjoy my tab!
Tap to rate this tab
# A B C D E F G H I J K L M N O P Q R S T U V W X Y Z